» » »

F.A.T.H - Sentiment Tabs (ver.1)

Artists:  A B C D E F G H I J K L M N O P Q R S T U V W X Y Z # 

F.A.T.H - Sentiment Tabs (ver.1)

Unsigned
Rating:
0/5 (0 votes)

Hard to play? Try these video lessons and learn fast.
                
intro  riff1             riff2
E|-------------------|  |----|
B|-------------------|  |----|
G|-------------------|  |----|
D|-334-3333-76-------|  |-33-|
A|-334-3333-76-------|  |-33-|
D|-334-3333-76-------|8X|-33-|wait for 2 second and then start verse

verse
E|-------------------|
B|-------------------|
G|-------------------|
D|---------------7-6-|
A|---------------7-6-|
D|-3334-3333-----7-6-|8x (verse comes after the 4th time)
  [--bass--]

intro riff1 (different struming pattern)

verse 8x

intro riff1 

riff2 (wait for 1 second)and then

bridge
|--------------------|
|--------------------|
|--------------------|
|-00-3-00-0-111------|
|-00-3-00-0-111------|
|-00-3-00-0-111------|8x

|------------------------|
|------------------------|
|------------------------|
|-33---------------------|
|-33---------------------|
|-33-----4---1---7---6---|8x
        [----bass----]

intro riff1

riff2
            
Hard to play? Try these video lessons and learn fast. | Correct




comments powered by Disqus
↑ Back to top | Tablatures and chords are parodies/interpretations of the original songs. You may use it for private study, scholarship, research or language learning purposes only