» » »

F.A.T.H - Drip Tabs (ver.1)

Artists:  A B C D E F G H I J K L M N O P Q R S T U V W X Y Z # 

F.A.T.H - Drip Tabs (ver.1)

Unsigned
Rating:
0/5 (0 votes)

Hard to play? Try these video lessons and learn fast.
                intro
        riff 1                                     riff 2
|----------------------------|  |------------------------------------------|
|----------------------------|  |------------------------------------------|
|----------------------------|  |---8-7---7---8-10---8---8-7---7---7-5---8-|
|----------------------------|  |-0-8-7-0-7-0-8-10-0-8-0-8-7-0-7-0-7-5-0-8-|
|--6-5--5-6-8--6-6-5-5-5-3-6-|  |-0-6-5-0-5-0-6-8--0-6-0-6-5-0-5-0-5-3-0-6-|
|-0---0--0---0--0---0-0---0--|2x|-0-----0---0------0---0-----0---0-----0---|2x
            pm

verse (intro riff1)                                      


Chorus
|-----------------------||-------------------------------------------|
|-----------------------||-------------------------------------------|
|-----------------------||-------------------------------------------|
|-000-888-777-10-10-10--||-000-888-777-55xxxx-000-888-777-33-1-1-1-1-|
|-000-888-777-10-10-10--||-000-888-777-55xxxx-000-888-777-33-1-1-1-1-|
|-000-888-777-10-10-10--||-000-888-777-55xxxx-000-888-777-33-1-1-1-1-|

verse (intro riff 1)
chorus (let note ring)

bridge                                            
|----------------------------|  |------------------------|
|----------------------------|  |------------------------|
|----------------------------|  |------------------------|
|-7777777-----3333333----5*--|  |-777777----33333333--1--|
|-7777777-9*--3333333--5*----|  |-777777-9*-33333333--1--|
|-7777777-----3333333--------|3X|-777777----33333333--1--|

intro ( riff 1 )
chorus
intro (riff 1 )
            
Hard to play? Try these video lessons and learn fast. | Correct




comments powered by Disqus
↑ Back to top | Tablatures and chords are parodies/interpretations of the original songs. You may use it for private study, scholarship, research or language learning purposes only