» » »

Fast Food - Untitled Tabs (ver.1)

Artists:  A B C D E F G H I J K L M N O P Q R S T U V W X Y Z # 

Fast Food - Untitled Tabs (ver.1)

Unsigned
Rating:
0/5 (0 votes)

Hard to play? Try these video lessons and learn fast.
                Intro1:
|--------------------------------------------------------------|
|-10-10-10---8-8-8-8-8---7-7-7---8-8-8-8-8---------------------|
|--7--7--7---7-7-7-7-7---7-7-7---7-7-7-7-7---------------------|
|--------------------------------------------------------------|
|--------------------------------------------------------------|
|--------------------------------------------------------------|

Intro2/Chorus:
|--------------------------------------------------------------|
|--------------------------------------------------------------|
|----------55555555-99999999-7777777---------------------------|
|-55555555-55555555-99999999-7777777---------------------------|
|-55555555-33333333-77777777-5555555---------------------------|
|-33333333-----------------------------------------------------|

Verse1:
|--------------------------------------------------------------|
|--------------------------------------------------------------|
|-----333-777-555----------------------------------------------|
|-333-333-777-555----------------------------------------------|
|-333-111-555-333----------------------------------------------|
|-111----------------------------------------------------------|
p.m...............

Verse2:
|--------------------------------------------------------------|
|--------------------------------------------------------------|
|-------333-777-555--------------------------------------------|
|---333-333-777-555--------------------------------------------|
|---333-111-555-333--------------------------------------------|
|---111--------------------------------------------------------|
p.m...  ..  ..  ..

Interlude:
|--------------------------------------------------------------|
|-10-10-10---8-8-8-8-8-----------------------------------------|
|-7--7--7----7-7-7-7-7-----------------------------------------|
|--------------------------------------------------------------|
|--------------------------------------------------------------|
|--------------------------------------------------------------|

Song Order:
Intro1
Intro2
Verse1
Chorus
Verse2
Chorus
Interlude
Chorus
            
Hard to play? Try these video lessons and learn fast. | Correct




comments powered by Disqus
↑ Back to top | Tablatures and chords are parodies/interpretations of the original songs. You may use it for private study, scholarship, research or language learning purposes only