>
 >
Fall So Far - Lines Of A Story

Fall So Far - Lines Of A Story Bass Tabs

Unsigned - Fall So Far - Lines Of A Story chords, tabs, tablatures, lyrics

Guitar lessons | Add/correct | Request | Top 50 tabs Artists:  A B C D E F G H I J K L M N O P Q R S T U V W X Y Z 0-9

Fall So Far - Lines Of A Story Bass Tabs – Unsigned

CD, Sheet music, Poster

Do you like Fall So Far - Lines Of A Story? Share with your friends now
Bass Tabs
Intro
Part 1 X2
G--------5------4h5-
D-----------5-------
A-------------------
E-0h5-55---5---5----

Part2
G-----------------------------------0h2
D--------3---2--------------5---3------
A-------------x-3-5--------------------
E-0h1-11---1---------0h3-33---3---3----

Preverse X2
G--------------------------------------
D--------------------------------------
A--------------------------------------
E-55--35---555555-35---11-01111111-01-

Verse X4

G--------------------------------------
D--------------------------------------
A--------------------------------------
E-55--55---555555-55---11-11-111111-11-

Prechorus X2
G-------------------
D-------------------
A-------------------
E-11111111-33333333-

Chorus X2
G--------------------------------------
D--------------------------------------
A--------------------------------------
E-55555555-11111111-00000000-33333333

Thing X2
G---------------------------------
D---------------------------------
A---------------------------------
E-xx5-xx5-xx5-xx5-xx5-xx5-xx5-xx5-

G---------------------------------
D---------------------------------
A---------------------------------
E-11111111-------11111111--------

Hard thing X2
G---------------------------------
D---------------------------------
A---------------------------------
E-5555-5555-5---3(let it ring)----

2nd Verse X4
G-----------------------------
D-----------------------------
A--3333377777-5--------------
E----------------11111-33333-3

At the fourth do:
G-----
D-----
A-----
E-55--

Chorus

Interlude
Wait til you come in
G----------------------------9-7--
D-------7-9-10-9-7------9-10----10
A------------------10-8-----------
E---3h5---------------------------

Ending X4
G--------------------------
D--------------------------
A--------------------------
E-5555-5555-5--5555-5555-5-

G-------------------------
D-------------------------
A-------------------------
E-1111-1111-1-1111-1111-1-

Preverse





Comments


Popular Unsigned tabs & chords
7th Solution - Black Widow Bass Tabs
Confident Song Bass Tabs
Less Than Zero - Fake Reality Bass Tabs
Messed Up Little World Bass Tabs
Sixdaystoyesterday - Thermalvalentine Bass Tabs
Suicide Method - Demonic Justice Bass Tabs
Barely Breathing- Bright Darkness Tabs
Bloody Knucles-Stupid Bitch Tabs
Fernands Band - Gangs Tabs
Headed For Ternity - Simple As Nuttin Tabs


Song lyrics



↑ Back to top | Tablatures and chords are parodies/interpretations of the original songs. You may use it for private study, scholarship, research or language learning purposes only
© 2014 AZChords.com Contact us | Privacy policy | DMCA | Add/correct tabs | Request tabs | Top 50 tabs