» » »

Unsigned, Fallen Angel - Drowning Bass tabs (ver.1)

Artists:  A B C D E F G H I J K L M N O P Q R S T U V W X Y Z # 

Fallen Angel - Drowning Bass tabs (ver.1)

Unsigned Tabs
 Rating:
4/5 (4 votes)
Fallen Angel - Drowning lessons Tabs too difficult? Try these video lessons and learn fast
1
                Drowning
Unreleased
[Intro/Verse] {Flanger Distortion} {Moderately Slow}
G|---------13--------13------------11-------11----|
D|11-11-11---11-11-11---11-11/9-9-9---9-9-9----9-9|
A|------------------------------------------------|(repeat)
D|------------------------------------------------|
[Pre-Chorus]x3 {Faster}then 4th time
G|-----------------|---------|
D|-----------------|---------|
A|-----------------|---------|
D|7-7-7-7-8-7-5-7--|8-7-5-8-7|
[Chorus]
G|----------------------------|
D|----------------------------|
A|----------------------------|
D|7-8-5-5-7-3-3-5-2-2-2-3-2-0-|
            
Submit corrections

comments powered by Disqus
↑ Back to top | Unsigned Bass for Fallen Angel - Drowning. Lyrics for acoustic guitar and electric guitar. 1 Tablatures and chords are parodies/interpretations of the original songs. You may use it for private study, scholarship, research or language learning purposes only