» » »

Fall Behind Zero - Broken Spirit Tabs (ver.1)

Artists:  A B C D E F G H I J K L M N O P Q R S T U V W X Y Z # 

Fall Behind Zero - Broken Spirit Tabs (ver.1)

Unsigned
Rating:
0/5 (0 votes)

Hard to play? Try these video lessons and learn fast.
                Unsigned

Intro
e|-----------------------------------|
B|-----------------------------------|
G|-----------------------------------|
D|-----------------------------------|
A|8-88-11-10---------4-44-86---------|
E|-----------44-44-6---------88-88-11|

Verse

  F		  G#	   C#       C	
e|------------------------------------------|
B|------------------------------------------|
G|10-101010101010----------6-666666-5-555555|
D|10-101010101010-6-666666-6-666666-5-555555|
A|8--8 8 8 8 8 8 -6-666666-4-444444-3-333333|
E|----------------4-444444------------------|

Chorus

  F		  Eb       C#       C
e|------------------------------------------|
B|------------------------------------------|
G|10-101010101010-8-888888-6-666666-5-555555|
D|10-101010101010-8-888888-6-666666-5-555555|
A|8--8 8 8 8 8 8 -6-666666-4-444444-3-333333|
E|------------------------------------------|

Solo
e|------------------------------------------------------------------|
B|------------------------------------------------------------------|
G|------------------------10-101010101010-8-888888-6-666666-5-555555|
D|-----------1010-1010-13-------------------------------------------|
A|8-88-11-10--------------------------------------------------------|
E|------------------------------------------------------------------|

e|13-131313131313-11-111111111111-9-999999-8-888888|
B|-------------------------------------------------|
G|-------------------------------------------------|
D|-------------------------------------------------|
A|-------------------------------------------------|
E|-------------------------------------------------|

End
e|------------------------------|
B|------------------------------|
G|----------------------------10|
D|----------------------------10|
A|8-811-10-88-811-10-8-811-10-8 |
E|------------------------------|

Order:
Intro x2
Verse x6
Chorus x4
Intro x2
Verse x6
Chorus x4
Solo
Chorus x8
End
            
Hard to play? Try these video lessons and learn fast. | Correct




comments powered by Disqus
↑ Back to top | Tablatures and chords are parodies/interpretations of the original songs. You may use it for private study, scholarship, research or language learning purposes only