» » »

Failed Attempt: My Final Cry Tabs (ver.1)

Artists:  A B C D E F G H I J K L M N O P Q R S T U V W X Y Z # 

Failed Attempt: My Final Cry Tabs (ver.1)

Unsigned
Rating:
0/5 (0 votes)

Hard to play? Try these video lessons and learn fast.
                *Title:My Final Cry
*Band: Failed Attempt
*Written By: Corey Allen
*Tuning: Eb,Ab,Db,Gb,Bb,Eb


Intro/Verse 1 X8 

E------------------------------------
B------------------------------------
G---4---4---4---4-----4---4---4---4--
D--2-2-2-2-2-2-2-2---2-2-2-2-2-2-2-2-
A-4---4---4---4-----0---0---0---0----
E------------------------------------

E------------------------------------
B------------------------------------
G---4---4---4---4-----4---4---4---4--
D--2-2-2-2-2-2-2-2---2-2-2-2-2-2-2-2-
A------------------------------------
E-4---4---4---4-----0---0---0---0----

Bridge X1 

E--------------------------------------
B--------------------------------------
G-4----4----4----4----4----4----4----4-
D-2----2----2----2----2----2----2----2-
A-4----0----X----X----4----0----X----X-
E-----------4----0--------------4----0-

Chorus X1 

E-----------------------------------------------------------
B-----------------------------------------------------------
G-6-6-6-6-6-6---------------9-9-9-9-9-9---------------------
D-6-6-6-6-6-6--7-7-7-7-7-7--9-9-9-9-9-9--9-9-9-9-9-9--------
A-4-4-4-4-4-4--7-7-7-7-7-7--7-7-7-7-7-7--9-9-9-9-9-9--------
E--------------5-5-5-5-5-5---------------7-7-7-7-7-7--------

E-----------------------------------------------------------
B-----------------------------------------------------------
G-6-6-6-6-6-6---------------9-9-9-9-9-9---------------------
D-6-6-6-6-6-6--7-7-7-7-7-7--9-9-9-9-9-9--9-9-9-9-9-9--------
A-4-4-4-4-4-4--7-7-7-7-7-7--7-7-7-7-7-7--9-9-9-9-9-9--------
E--------------5-5-5-5-5-5---------------7-7-7-7-7-7--------

E--------------------------------------------------
B--------------------------------------------------
G--------------------------------------------------
D-9-9-9-9-9-9--7-7-7-7-7-7-7-7-7-7-7-7-------------
A-9-9-9-9-9-9--7-7-7-7-7-7-7-7-7-7-7-7-------------
E-7-7-7-7-7-7--5-5-5-5-5-5-5-5-5-5-5-5-------------

Verse 2 X8 

E-------------------------------------------------------------
B-------------------------------------------------------------
G-------------------------------------------------------------
D-2-2-2-2-2-2--2-2-2-2-2-2-2-2--2-2-2-2-2-2--2-2-2-2-2-2-2-2--
A-4-4-4-4-4-4--0-0-0-0-0-0-0-0--X-X-X-X-X-X--0-0-0-0-0-0-0-0--
E-------------------------------4-4-4-4-4-4-------------------
PM..........................................................PM

Bridge X1 

E--------------------------------------
B--------------------------------------
G-4----4----4----4----4----4----4----4-
D-2----2----2----2----2----2----2----2-
A-4----0----X----X----4----0----X----X-
E-----------4----0--------------4----0-

Chorus X1 

E-----------------------------------------------------------
B-----------------------------------------------------------
G-6-6-6-6-6-6---------------9-9-9-9-9-9---------------------
D-6-6-6-6-6-6--7-7-7-7-7-7--9-9-9-9-9-9--9-9-9-9-9-9--------
A-4-4-4-4-4-4--7-7-7-7-7-7--7-7-7-7-7-7--9-9-9-9-9-9--------
E--------------5-5-5-5-5-5---------------7-7-7-7-7-7--------

E-----------------------------------------------------------
B-----------------------------------------------------------
G-6-6-6-6-6-6---------------9-9-9-9-9-9---------------------
D-6-6-6-6-6-6--7-7-7-7-7-7--9-9-9-9-9-9--9-9-9-9-9-9--------
A-4-4-4-4-4-4--7-7-7-7-7-7--7-7-7-7-7-7--9-9-9-9-9-9--------
E--------------5-5-5-5-5-5---------------7-7-7-7-7-7--------

E--------------------------------------------------
B--------------------------------------------------
G--------------------------------------------------
D-9-9-9-9-9-9--7-7-7-7-7-7-7-7-7-7-7-7-------------
A-9-9-9-9-9-9--7-7-7-7-7-7-7-7-7-7-7-7-------------
E-7-7-7-7-7-7--5-5-5-5-5-5-5-5-5-5-5-5-------------

Intro/Verse 1 X8 

E------------------------------------
B------------------------------------
G---4---4---4---4-----4---4---4---4--
D--2-2-2-2-2-2-2-2---2-2-2-2-2-2-2-2-
A-4---4---4---4-----0---0---0---0----
E------------------------------------

E------------------------------------
B------------------------------------
G---4---4---4---4-----4---4---4---4--
D--2-2-2-2-2-2-2-2---2-2-2-2-2-2-2-2-
A------------------------------------
E-4---4---4---4-----0---0---0---0----

Chorus X1 

E-----------------------------------------------------------
B-----------------------------------------------------------
G-6-6-6-6-6-6---------------9-9-9-9-9-9---------------------
D-6-6-6-6-6-6--7-7-7-7-7-7--9-9-9-9-9-9--9-9-9-9-9-9--------
A-4-4-4-4-4-4--7-7-7-7-7-7--7-7-7-7-7-7--9-9-9-9-9-9--------
E--------------5-5-5-5-5-5---------------7-7-7-7-7-7--------

E-----------------------------------------------------------
B-----------------------------------------------------------
G-6-6-6-6-6-6---------------9-9-9-9-9-9---------------------
D-6-6-6-6-6-6--7-7-7-7-7-7--9-9-9-9-9-9--9-9-9-9-9-9--------
A-4-4-4-4-4-4--7-7-7-7-7-7--7-7-7-7-7-7--9-9-9-9-9-9--------
E--------------5-5-5-5-5-5---------------7-7-7-7-7-7--------

E--------------------------------------------------
B--------------------------------------------------
G--------------------------------------------------
D-9-9-9-9-9-9--7-7-7-7-7-7-7-7-7-7-7-7-------------
A-9-9-9-9-9-9--7-7-7-7-7-7-7-7-7-7-7-7-------------
E-7-7-7-7-7-7--5-5-5-5-5-5-5-5-5-5-5-5-------------

Outro X2 

E------------------------------------
B------------------------------------
G---4---4---4---4-----4---4---4---4--
D--2-2-2-2-2-2-2-2---2-2-2-2-2-2-2-2-
A-4---4---4---4-----0---0---0---0----
E------------------------------------

E------------------------------------
B------------------------------------
G---4---4---4---4-----4---4---4---4--
D--2-2-2-2-2-2-2-2---2-2-2-2-2-2-2-2-
A------------------------------------
E-4---4---4---4-----0---0---0---0----





~~ORDER~~

intro/verse 1
bridge
chorus
verse 2
bridge
chorus
intro/verse 1
chorus
outro
            
Hard to play? Try these video lessons and learn fast. | Correct




comments powered by Disqus
↑ Back to top | Tablatures and chords are parodies/interpretations of the original songs. You may use it for private study, scholarship, research or language learning purposes only