» » »

Unsigned, Fading Out - We Know Its You Tabs (ver.1)

Artists:  A B C D E F G H I J K L M N O P Q R S T U V W X Y Z # 

Fading Out - We Know Its You Tabs (ver.1)

Unsigned Tabs
Rating:
0/5 (0 votes)
Fading Out - We Know Its You lessons Tabs too difficult? Try these video lessons and learn fast
                LEGEND:
h=hold

INTRO
|---Play x3-----|
|---------------|
|---------------|
|---------------|
|---------------|
|---------------|
|--9-7-4-343430-|
|7--------------|

|---------------|
|---------------|
|---------------|
|---------------|
|--9-7-4--------|
|7--------------|

|---------------Play x2------------------|
|----------------------------------------|
|----------------------------------------|
|----------------------------------------|
|----------------------------------------|
|99999999-99999999-55555555-77777777-----|
|77777777-99999999-77777777-77777777-----|

|---------------Play x2------------------|
|----------------------------------------|
|----------------------------------------|
|----------------------------------------|
|99999999-99999999-55555555-77777777-----|
|77777777-99999999-77777777-77777777-----|
|----------------------------------------|

Verse
|---------------Play x2------------------|
|----------------------------------------|
|----------------------------------------|
|----------------------------------------|
|----------------------------------------|
|9999999999999999-7777777777777777-------|
|7777777777777777-5555555555555555-------|

BRIDGE
|----------------------------------------|
|----------------------------------------|
|----------------------------------------|
|3-33-3-33-3h----------------------------|
|3-33-3-33-3h----------------------------|
|1-11-1-11-1h----------------------------|

REPEAT VERSE
REPEAT BRIDGE
REPEAT VERSE
REPEAT BRIDGE

END
            
Submit corrections

comments powered by Disqus
↑ Back to top | Unsigned Tabs for Fading Out - We Know Its You. Lyrics for acoustic guitar and electric guitar. Tablatures and chords are parodies/interpretations of the original songs. You may use it for private study, scholarship, research or language learning purposes only