» » »

Esaul Xero - Demo Tabs (ver.1)

Artists:  A B C D E F G H I J K L M N O P Q R S T U V W X Y Z # 

Esaul Xero - Demo Tabs (ver.1)

Unsigned
Rating:
0/5 (0 votes)

Hard to play? Try these video lessons and learn fast.
                Esaul Xero
Demo 1

Tuning Drop-C# (C#,Ab,C#,F#,Bb,Eb)

This our first song that we wrote.  Hope you can get a feel for it.  It


Intro  (x2)
Verse  (x4)
Chorus (x4)
Verse  (x8)
Chorus (x8)
Bridge (x4)
Verse  (x4)
Chorus (x2)
Bridge (x4)


Intro
Eb|-0-----0-------0------0-----0----------------0-----0-------0-----|
Bb|-----3-3-3---3---3--------3-3-3---3-3-3-3--------3-3-3---3---3---|
F#|---2---2---2------------2---2---2--------------2---2---2---------|
C#|-0-----0-----------0--0-----0----------------0-----0-----------0-|
Ab|-----------------------------------------------------------------|
C#|-----------------------------------------------------------------|

Eb|------------------|
Bb|------------------|
F#|-------2--------2-|
C#|-----0---0----0---|
Ab|---0-------0------|
C#|-3----------------|



Verse
Eb|---------------|
Bb|-3-3-3-3-3--3--|
F#|-2-2-2-2-2--2--|
C#|-0-0-0-0-0--0--|
Ab|-0-0-0-0-0--0--|
C#|------------3--|

Chorus
Eb|-------------------------------|
Bb|-------------------------------|
F#|-7xx77-------------7--7777---3-|
C#|-7xx77---3--3-3----5--5555---3-|
Ab|-5xx55---3--3-3----5--5555---1-|
C#|---------3--3-3----5--5555-----|

Bridge
Eb|-----------------------|
Bb|-----------------------|
F#|-----------------------|
C#|-1xxx1--1-1-1--3xxx-0--|
Ab|-1xxx1--1-1-1--3xxx-0--|
C#|-1xxx1--1-1-1--3xxx-0--|
            
Hard to play? Try these video lessons and learn fast. | Correct




comments powered by Disqus
↑ Back to top | Tablatures and chords are parodies/interpretations of the original songs. You may use it for private study, scholarship, research or language learning purposes only