» » »

Endless Suffering - Fell The Rage Tabs (ver.1)

Artists:  A B C D E F G H I J K L M N O P Q R S T U V W X Y Z # 

Endless Suffering - Fell The Rage Tabs (ver.1)

Unsigned
Rating:
0/5 (0 votes)

Hard to play? Try these video lessons and learn fast.
                Guitar: Jakob "Axe" Johnsen

Tuning = drop D

x = palm mute

/ = slide up to

\ = slide down to


Intro Part 1
e-----------------------------------------------------------------|
b-----------------------------------------------------------------|
g-7-7-7-7-7-7-7-7-7-7-7-7-7-7-7-7/11-11-11-11-11-11-11-11-11-11-11| 
d-x-x-x-x-x-x-x-x-x-x-x-x-x-x-x-x/x-x-x-x-x-x-x-x-x-x-x-x-x-x-x-x-| 1x
a-5-5-5-5-5-5-5-5-5-5-5-5-5-5-5-5/9-9-9-9-9-9-9-9-9-9-9-9-9-9-9-9-|
D-----------------------------------------------------------------|

Part 2
e-----------------------------------------------------------------|
b-----------------------------------------------------------------|
g-7-7-7-7-7-7-7-7-7-7-7-7-7-7-7-7/14-14-14-14-14-14-14-14-14-14-14| 
d-x-x-x-x-x-x-x-x-x-x-x-x-x-x-x-x/x-x-x-x-x-x-x-x-x-x-x-x-x-x-x-x-| 1x
a-5-5-5-5-5-5-5-5-5-5-5-5-5-5-5-5/12-12-12-12-12-12-12-12-12-12-12|
D-----------------------------------------------------------------|

Verse 1
e-----------------------------------------------------------------|
b-----------------------------------------------------------------|
g-----------------------------------------------------------------|
d-2\1-1-1-1-1-1-1-1-1-1-1-1-1-1-----------------------------------| 4x
a-2\1-1-1-1-1-1-1-1-1-1-1-1-1-1-----------------------------------|
D-2\1-1-1-1-1-1-1-1-1-1-1-1-1-1-----------------------------------|

Chorus
e-----------------------------------------------------------------|
b-----------------------------------------------------------------|
g-----------------------------------------------------------------|
d-/5-5-5-5-5-5-5-5-5-5-5-5-5-5-5-5--------------------------------| 4x
a-/5-5-5-5-5-5-5-5-5-5-5-5-5-5-5-5--------------------------------|
D-/5-5-5-5-5-5-5-5-5-5-5-5-5-5-5-5--------------------------------|

Bridge Part 1
e-----------------------------------------------------------------|
b-----------------------------------------------------------------|
g-7-7-7-7-7-7-7-7-7-7-7-7-7-7-7-7/11-11-11-11-11-11-11-11-11-11-11| 
d-x-x-x-x-x-x-x-x-x-x-x-x-x-x-x-x/x-x-x-x-x-x-x-x-x-x-x-x-x-x-x-x-| 1x
a-5-5-5-5-5-5-5-5-5-5-5-5-5-5-5-5/9-9-9-9-9-9-9-9-9-9-9-9-9-9-9-9-|
D-----------------------------------------------------------------|

Part 2
e-----------------------------------------------------------------|
b-----------------------------------------------------------------|
g-7-7-7-7-7-7-7-7-7-7-7-7-7-7-7-7-7-7-7-7-7-7-7-7-7-7-7-7-7-7-7-7-| 
d-x-x-x-x-x-x-x-x-x-x-x-x-x-x-x-x-x-x-x-x-x-x-x-x-x-x-x-x-x-x-x-x-| 1x
a-5-5-5-5-5-5-5-5-5-5-5-5-5-5-5-5-5-5-5-5-5-5-5-5-5-5-5-5-5-5-5-5-|
D-----------------------------------------------------------------|

Verse 2 (same as verse 1)

Chorus (same as Chorus)

Solo
e-9b9-9-9-9-9-9b9-9-9-9-9-9b9-9-9-9-9-9b9-9-9-9-9-9b-9-9-9-9-9-9b-|
b-12b12-12-12-12b12-12-12-12b12-12-12-12b12-12-12-12b12-12-12-12--|
g-----------------------------------------------------------------|
d-----------------------------------------------------------------| 1x
a-----------------------------------------------------------------|
D-----------------------------------------------------------------|

verse 3 (same as 1 & 2)

Chorus (same as Chorus)

Outro Part 1
e-----------------------------------------------------------------|
b-----------------------------------------------------------------|
g-7-7-7-7-7-7-7-7-7-7-7-7-7-7-7-7/11-11-11-11-11-11-11-11-11-11-11|
d-x-x-x-x-x-x-x-x-x-x-x-x-x-x-x-x/x-x-x-x-x-x-x-x-x-x-x-x-x-x-x-x-| 1x
a-5-5-5-5-5-5-5-5-5-5-5-5-5-5-5-5/9-9-9-9-9-9-9-9-9-9-9-9-9-9-9-9-|
D-----------------------------------------------------------------|

e-----------------------------------------------------------------|
b-----------------------------------------------------------------|
g-7-7-7-7-7-7-7-7-7-7-7-7-7-7-7-7/14-14-14-14-14-14-14-14-14-14-14| 
d-x-x-x-x-x-x-x-x-x-x-x-x-x-x-x-x/x-x-x-x-x-x-x-x-x-x-x-x-x-x-x-x-| 1x
a-5-5-5-5-5-5-5-5-5-5-5-5-5-5-5-5/12-12-12-12-12-12-12-12-12-12-12|
D-----------------------------------------------------------------|

Part 2
e-----------------------------------------------------------------|
b-----------------------------------------------------------------|
g-----------------------------------------------------------------|
d-0---0---0---0---0---0-------------------------------------------| 1x
a-0---0---0---0---0---0-------------------------------------------|
d-0---0---0---0---0---0-------------------------------------------|

Order:
Intro Prat 1/2
Verse 1
Chorus
Bridge Part 1/2
Verse 2 (same as verse 1)
Chorus (same as Chorus)
Solo
verse 3 (same as 1 & 2)
Chorus (same as Chorus)
Outro Part 1/2

FIGHT FOR HEAVY-METAL, LIKE WE DO! ENDLESS SUFFERING FOREVER.
            
Hard to play? Try these video lessons and learn fast. | Correct




comments powered by Disqus
↑ Back to top | Tablatures and chords are parodies/interpretations of the original songs. You may use it for private study, scholarship, research or language learning purposes only