» » »

Unsigned, Empty Slot- Dork Tabs (ver.1)

Artists:  A B C D E F G H I J K L M N O P Q R S T U V W X Y Z # 

Empty Slot- Dork Tabs (ver.1)

Unsigned Tabs
 Rating:
4/5 (4 votes)
Empty Slot- Dork lessons Tabs too difficult? Try these video lessons and learn fast
1
                Intro (play twice)

E--------------------------------------------------------------------------------------------------------------------------
B--------------------------------------------------------------------------------------------------------------------------
G-------------0-0-^-4-^-0-0-^-5-^-4^-0-0-0---2--------------------0-0-^-4-^-0-0-^-5-^-0-0-0------------------
D----5---------------------------------------------2—(let ring)--------------------------------------------------------
A----5—(let ring)-------------------------------0----------------------------------------------------------------------
E----3---------------------------------------------------------------------------------------------------------------------

(cont’d)

E--------------------------------------------------------------------------------------------------------------------------
B--------------------------------------------------------------------------------------------------------------------------
G------5----------------0-0-^-4-^-0-0-^5-^-0-0-0--------7---------------0-0-0-^-2-^-0-0-^-5-^-0-0-^-4-^-0--
D------5—(let ring)-----------------------------------------7-(let ring)-----------------------------------------------
A------3------------------------------------------------------5-----------------------------------------------------------
E--------------------------------------------------------------------------------------------------------------------------

Chorus (play twice)

E--------------------------------------------------------------------------------------------------------------------------
B--------------------------------------------------------------------------------------------------------------------------
G--------------------2------------------5---------------7-----------------------------------------------------------------
D----5---------------2----(x7)--------5----(x7)-------7—(x7)--------------------------------------------------------
A----5—(x7)-------0-----------------3----------------5----------------------------------------------------------------
E----3---------------------------------------------------------------------------------------------------------------------

Verse (W/PM)
Play Twice
E--------------------------------------------------------------------------------------------------------------------------
B--------------------------------------------------------------------------------------------------------------------------
G--------------------------------------5----------------7-----------------------------------------------------------------
D------5--------------2---------------5---(x7)--------7---(x7)---------------------------------------------------------
A------5---(x7)------2----(x7)------3----------------5-----------------------------------------------------------------
E------3--------------0---------------------------------------------------------------------------------------------------

Bridge
Play Twice

E--------------------------------------------------------------------------------------------------------------------------
B--------------------------------------------------------------------------------------------------------------------------
G-------------------------7-------------------9------------------5-------------------------------------------------------
D---------5---------------7----(x4)---------9—(x4)----------5—(x4)------------------------------------------------
A---------5---(x4)-------5------------------7------------------3--------------------------------------------------------
E---------3----------------------------------------------------------------------------------------------------------------

That’s it!
            
Submit corrections

comments powered by Disqus
↑ Back to top | Unsigned Tabs for Empty Slot- Dork. Lyrics for acoustic guitar and electric guitar. 1 Tablatures and chords are parodies/interpretations of the original songs. You may use it for private study, scholarship, research or language learning purposes only