» » »

Emodium -Rosewater Tabs (ver.1)

Artists:  A B C D E F G H I J K L M N O P Q R S T U V W X Y Z # 

Emodium -Rosewater Tabs (ver.1)

Unsigned
Rating:
0/5 (0 votes)

Hard to play? Try these video lessons and learn fast.
                Rosewater
-Josh Cleaver

Intro/verse:-Clean sound                                                               
	  C#  A   F#  G#  C# B  A 
e	:----------------------------------------------:	Verse 1:
B	:----------------------------------------------:            Kiss and smell her whomb,                           
G	:--6-6-----------------6-6-4-4-------------:	I can taste her pain.
D	:--6-6-7-7-4-4-6-6-6-6-4-4-7-7-7-7--:	Left me in her room,
A	:--4-4-7-7-4-4-6-6-4-4-2-2-7-7-7-7--:	It's all in my brain.
E	:-------5-5-2-2-4-4------------5-5-5-5--:	
						Chorus/Chorus (Part 2):
Chorus:-Lots of distortion			On my own.
	   F#  B   A				
e	:------------------------:			Verse 2:
B	:------------------------:			Stare into my face,
G	:-------4-4-2-2-2-2--:			Left me here alone.
D	:--4-4-4-4-2-2-2-2-:			Like a childhood chase,
A	:--4-4-2-2-0-0-0-0-:			I am here alone.
E	:--2-2------------------:

Chorus(Part 2):
	   B                    C#       A
e	:----------------------------------------------:
B	:----------------------------------------------:
G	:--4-4-4-4-4-4-4-4-6-6-6-6------------:
D	:--4-4-4-4-4-4-4-4-6-6-6-6------------:
A	:--2-2-2-2-2-2-2-2-4-4-4-4-7-7-7-7-:
E	:-----------------------------------5-5-5-5-:

Bridge:-Distortion
	   F#
e	:----------------------------------------------------------:
B	:----------------------------------------------------------:
G	:----------------------------------------------------------:
D	:--4-4-4-4-4-4-4-4-4-4-4-4-4-4-4-4-4-4-4-4--:
A	:--4-4-4-4-4-4-4-4-4-4-4-4-4-4-4-4-4-4-4-4--:
E	:--2-2-2-2-2-2-2-2-2-2-2-2-2-2-2-2-2-2-2-2--:
              [____________]     [________]
                Palm Mute          Palm Mute

Guitar solo (part 1):-Distortion
e	:-------------------------------:
B	:-------------------------------:
G	:-------------------------------:
D	:-------------------------------:
A	:-------------2/4/5-5-5-5--:
E	:--2-2-4-4------------------:	

Guitar solo (part 2):-Distortion
e	:------------------------------------------------------:
B	:------------------------------------------------------:
G	:------------------------------------------------------:
D	:------------------------------------------------------:
A	:-------------2/4/5-5-5-5-4-5-4-5/7/8/9/10--:
E	:--2-2-4-4------------------------------------------:	

Song order:
Intro x2
Verse x2
Chorus x4
Verse x4
Chorus x4
Chorus (Part 2) x2
Bridge
Chorus x2
Solo (Part 1) x2
Solo (Part 2) x1
Chorus x4
Chorus (Part 2) x2
            
Hard to play? Try these video lessons and learn fast. | Correct




comments powered by Disqus
↑ Back to top | Tablatures and chords are parodies/interpretations of the original songs. You may use it for private study, scholarship, research or language learning purposes only