» » »

Unsigned, Emodium -Let It All Go Tabs (ver.1)

Artists:  A B C D E F G H I J K L M N O P Q R S T U V W X Y Z # 

Emodium -Let It All Go Tabs (ver.1)

Unsigned Tabs
 Rating:
4/5 (4 votes)
Emodium -Let It All Go lessons Tabs too difficult? Try these video lessons and learn fast
                -Emodium
-Josh Cleaver

Intro/Verse:
e	:-----------------------------------------:
B	:-----------------------------------------:
G	:--6-6-9-9-9-9-9---------------------:
D	:--6-6-9-9-9-9-9-9-9-7-7-7-7-7--:
A	:--4-4-7-7-7-7-7-9-9-7-7-7-7-7--:
E	:---------------------7-7-5-5-5-5-5--:

Chorus:
e	:-----------------------------------------------:
B	:-----------------------------------------------:
G	:-------------5-5-5-5------------7-7-7-7--:
D	:--2-2-2-2-5-5-5-5-5-5-5-5-7-7-7-7--:
A	:--2-2-2-2-3-3-3-3-5-5-5-5-5-5-5-5--:
E	:--0-0-0-0------------3-3-3-3-------------:	x3

e	:-------------------------------------------------:
B	:-------------------------------------------------:
G	:-------------4~~~4-4-7-7-7-7-7-7-7-7--:
D	:--2-2-2-2-4~~~4-4-7-7-7-7-7-7-7-7--:
A	:--2-2-2-2-2~~~2-2-5-5-5-5-5-5-5-5--:
E	:--0-0-0-0-------------------------------------:	x1
            
Submit corrections

comments powered by Disqus
↑ Back to top | Unsigned Tabs for Emodium -Let It All Go. Lyrics for acoustic guitar and electric guitar. Tablatures and chords are parodies/interpretations of the original songs. You may use it for private study, scholarship, research or language learning purposes only