» » »

Ekineesha Force - Pay Day Tabs (ver.1)

Artists:  A B C D E F G H I J K L M N O P Q R S T U V W X Y Z # 

Ekineesha Force - Pay Day Tabs (ver.1)

Unsigned
Rating:
0/5 (0 votes)

Tabs too difficult? Try these video lessons and learn fast.
                Ekineesha Force

Standard Tuning.

Intro & verse on Guitar 1

]-------------------------------------
]-------------------------------------
]-------------------------------------
]-11-11-13-13-13-13-11-11-14-15-------
]-0--0--0--0--0--0--0--0--------------
]-------------------------------------  Repeat till chorus

Chorus on Guitar 1

]-----------------------------------------------------------
]-------------15-14-12-10-------------15-14-15^16-14-15-----
]-11-11-13-15-------------11-11-13-15-----------------------
]-0--0--0--0--0--0--0--0--0--0--0--0--0--0--0---------------
]-----------------------------------------------------------
]-----------------------------------------------------------

Verse on backing guitar (guitar 2)

A, D
Usually played as barre chords (unless accoustic)


Chorus on guitar 2

Bm, E


Solo

]--------------------------------------------
]-14-15^16^14-12-14-12-10-8-10-12-10-12/14---
]------------------------9-------------------
]--------------------------------------------
]--------------------------------------------
]--------------------------------------------Repeat and vary this to get the full
					     Thing.

LYRICS:

Im gonna work real hard,
Im gonna buy a car,
Take a trip to San Jose,
Doesn't matter anyway....

If This dream comes true, 
I will write to you, 
If this dream comes true, 
I will love you baby....

They tell you to be yourself,
They tell you to watch your mouth,
But in this getaway,
Dont believe a word i say....

If this dream comes true, 
I will write to you,
If this dream comes true,
I will love you baby....

Looks pretty short, but its still a good song!

Hopefully this tab is 100% correct, im just doing this from memory....
More Ekineesha Force Tabs coming soon though.......

Original lyrics written by Ayden Saffari.
Ekineesha Force Copyright 2003.
            
Tabs too difficult? Try these video lessons and learn fast.


comments powered by Disqus
↑ Back to top | Tablatures and chords are parodies/interpretations of the original songs. You may use it for private study, scholarship, research or language learning purposes only