>
 >
Egoshed-The Dark Inside Us

Egoshed-The Dark Inside Us Guitar Tabs

Unsigned - Egoshed-The Dark Inside Us chords, tabs, tablatures, lyrics

Guitar lessons | Add/correct | Request | Top 50 tabs Artists:  A B C D E F G H I J K L M N O P Q R S T U V W X Y Z 0-9

Egoshed-The Dark Inside Us Guitar Tabs – Unsigned

CD, Sheet music, Poster

Do you like Egoshed-The Dark Inside Us? Share with your friends now
Tabs
band-egoshed
song-the dark inside us
cd-dawn of blood
guitarists-lead-kirby forsythe

tuning-DADGBE


(VERSE AND INTRO)(guitar 1)
E----------------------------------------------------------------||X4
B-------------------------------------------------------------*--||X4
G----------------------------------------------------------------||X4
D------------------------------------------------50-50--50--50---||X4
A-7-7-7-7-7H8/6--3-3-3-3-3H4/2-------------------50-50--50--50*--||X4
D---------------------------------5-5-5-5-5H6/5--70-70--70--507~-||X4

(INTRO)(GUITAR 2)(COMES IN 2ND TIME THROUGH)
E-------------------------------------------------------------------------||X2
B-------------------------------------------------------------------------||X2
G-------------------------------------------------------------------------||X2
D-------------------------------------------------------------------------||X2
A-------------------------------------------------------------------------||X2
D-----------------------5H6P5-----5---5-5H6P5----5--5-5-5--7-5-7-5-7-5-555||X2

(CHOURS)
E-----------------------------------|--------------------------------------------||X4
B-----------------------------------|----------------------------------------*---||X4
G-----------------------------------|--------------------------------------------||X4
D-33333333-00000000-7777777777777777|-9999999-55555555-5/777-5/777-5/777-5/777---||X4
A-33333333-00000000-7777777777777777|-9999999-55555555-5/777-5/777-5/777-5/777*--||X4
D-33333333-00000000-7777777777777777|-9999999-55555555-5/777-5/777-5/777-5/777---||X4

(bridge)(W/WAH) (GUITAR 1)                      

E--------------------------------------------------------------------||
B---15~---12-12-12-12-14-13--17-17-20~----20(x8)-18(x8)-22(x8)-------||
G-----------------------------------------------------------------15-||
D--------------------------------------------------------------------||
A--------------------------------------------------------------------||
D--------------------------------------------------------------------||

(BRIDGE)(GUITAR 2)
E-------------------------------------------------------||X2
B-------------------------------------------------------||X2
G-------------------------------------------------------||X2
D-------------------------------------------------------||X2
A-2-2-0---2-2-0---2-2-0---2-2-0---333-666-101010-555-888||X2
D-2-2-0---2-2-0---2-2-0---2-2-0---333-666-101010-555-888||X2

(OUTRO)(GUITAR 2)
E----------||--------||X12
B----------||--------||X12
G----------||--------||X12
D----------||--------||X12
A-3~-------||33-4-3~-||X12
D-3~-------||33-4-3~-||X12

(GUITAR 1)(comes in on guitar 2's 4th time through)
E------------------------------||x8
B------------------------------||x8
G----------33334444555500000000||x8
D------------------------------||x8
A------------------------------||x8
D------------------------------||x8

intro 1-x4
intro 2-x2
chours-x4
verse-x8
chours-x4
verse-x8
chours-x4
bridge 1-x1
bridge 2-x2
chours-x8
outro 2-x12
outro 1-x8

thanks for taking the time to check out this tab, i will have more sometime soon, later days people.we got another line up change, tim and i will be handling everything.thanks





Comments


Popular Unsigned tabs & chords
Dabchick - The Elcamino Hapachino Bass Tabs
Dr Jones Bass Tabs
Messed Up Little World Bass Tabs
The Rooftop Divers - Rockin Through Bass Tabs
Anti Bioxic Tabs
Calling Home- A.G.A.W.S. Tabs
Country Riff Tabs
Cuttlefish - Khemistry Tabs
Floor 13 - I Tabs
Gba - Over And Over Tabs


Song lyrics



↑ Back to top | Tablatures and chords are parodies/interpretations of the original songs. You may use it for private study, scholarship, research or language learning purposes only
© 2014 AZChords.com Contact us | Privacy policy | DMCA | Add/correct tabs | Request tabs | Top 50 tabs