» » »

Unsigned, Egoshed-4 Star Coffin Tabs (ver.1)

Artists:  A B C D E F G H I J K L M N O P Q R S T U V W X Y Z # 

Egoshed-4 Star Coffin Tabs (ver.1)

Unsigned Tabs
 Rating:
4/5 (4 votes)
Egoshed-4 Star Coffin lessons Tabs too difficult? Try these video lessons and learn fast
                band-Egoshed
song-four star coffin
cd-dawn of blood
guitarists-lead-kirby forsythe
rythm-shawn lecloux
tuning-DADGBE

(intro)(guitar 1)
E-----------------------------||x12
B-----------------------------||x12
G-----------------------------||x12
D-------7-----3-------2-----4-||x12
A-----7-----3-------2---1-3---||x12
D-3-5-----1-----3-0-----------||x12

(verse)
E----------------------------||x16
B----------------------------||x16
G------0-------0-------------||x16
D----------------0------3----||x16
A---0----0---0--------3---3--||x16
D-5--------3--------1--------||x16

(pre chours)
E--------------------------||x4
B--------------------------||x4
G--------------------------||x4
D-----5------3-----2-------||x4
A---5------3-----2---3-1---||x4
D-3------1-----0---------4-||x4

(chours)(both guitars)
E--------------------------------------------||x2
B--------------------------------------------||x2
G--------------------------------------------||x2
D--------------------------------------------||x2
A--9--0-3-0--3-3-3-0-3-5--0-3-0-3-3-3-0-3-2-0||x2
D--9--0-3-0--3-3-3-0-3-5--0-3-0-3-3-3-0-3-2-0||x2

(post chours)(GUITAR 1)
E------------------||X2
B------------------||X2
G------------------||X2
D------------------||X2
A-----6--4-7--2-5--||X2
D--5---------------||X2(ON 2ND TIME, USE WAH)

CHOURS(X2)
VERSE(X4)
chours(x2)
(BRIDGE)(GUITAR 1)(volume swell w/bass solo)
E------------------------------------------||x2
B---12------------14--------10----17-------||x2
G------------------------------------------||x2
D------------------------------------------||x2
A------------------------------------------||x2
D------------------------------------------||x2

then(QUICK SWELL)
E-----||X1
B-----||X1
G-----||X1
D---3-||X1
A---3-||X1
D---3-||X1

THEN CHOURS

(outro)
E-------------------------||
B-------------------------||
G-------------------------||
D-------------------------||
A-2-3---7~--2-3---9~--0---||
D-2-3-------2-3-------0---||


intro 2(x16)
intro 1(x12)
chours(x2)
verse(x4)
pre-chours(x2)
chours(x4)
verse(x4)
pre chours(x2)
chours(x2)
bridge(x2)
quick swell(x1)
chours(x4)
outro(x1)
later days people-more to come.(116)
            
Submit corrections

comments powered by Disqus
↑ Back to top | Unsigned Tabs for Egoshed-4 Star Coffin. Lyrics for acoustic guitar and electric guitar. Tablatures and chords are parodies/interpretations of the original songs. You may use it for private study, scholarship, research or language learning purposes only