>
 >
Edwardshor-Draw Your Number

Edwardshor-Draw Your Number Guitar Tabs

Unsigned - Edwardshor-Draw Your Number chords, tabs, tablatures, lyrics

Guitar lessons | Add/correct | Request | Top 50 tabs Artists:  A B C D E F G H I J K L M N O P Q R S T U V W X Y Z 0-9

Edwardshor-Draw Your Number Guitar Tabs – Unsigned

CD, Sheet music, Poster

Do you like Edwardshor-Draw Your Number? Share with your friends now
Tabs
Draw your number:

Music written by edwardshor.
tuning: DADGBE

INTRO
|-------------|
|-------------|
|-------------|
|----0-4--0-7-|
|----0-4--0-7-|
|----0-4--0-7-|

VERSE
|-----------------------------------------------------|
|-----------------------------------------------------|
|-----------------------------------------------------|
|--4-5-4-0-4-4--4-5-4-0-4-4--4-5-4-0-4-4--4-5-4-0-4-7-|
|--4-5-4-0-4-4--4-5-4-0-4-4--4-5-4-0-4-4--4-5-4-0-4-7-|
|--4-5-4-0-4-4--4-5-4-0-4-4--4-5-4-0-4-4--4-5-4-0-4-7-|

|----------------------------------------------------------------------------------|
|----------------------------------------------------------------------------------|
|----------------------------------12-12-12-12-12-12-12-12-12-12-12-12-12-12-12-12-|
|--2-2-2-2-2-2-2-2-2-2-2-2-2-2-2-2-10-10-10-10-10-10-10-10-10-10-10-10-10-10-10-10-|
|--2-2-2-2-2-2-2-2-2-2-2-2-2-2-2-2-10-10-10-10-10-10-10-10-10-10-10-10-10-10-10-10-|
|--2-2-2-2-2-2-2-2-2-2-2-2-2-2-2-2-10-10-10-10-10-10-10-10-10-10-10-10-10-10-10-10-|

PRE-CHORUS
|---------------------------------------------------------------------------------------|
|---------------------------------------------------------------------------------------|
|--9-9-9-9-9-9-9-9-9-9-9-9-9-9-9-9-11-11-11-11-11-11-11-11-11-11-11-11-11-11-11-11------|
|--7-7-7-7-7-7-7-7-7-7-7-7-7-7-7-7--9--9--9--9--9--9--9--9--9--9--9--9--9--9--9--9-12//-|
|--7-7-7-7-7-7-7-7-7-7-7-7-7-7-7-7--9--9--9--9--9--9--9--9--9--9--9--9--9--9--9--9-12//-|
|--7-7-7-7-7-7-7-7-7-7-7-7-7-7-7-7--9--9--9--9--9--9--9--9--9--9--9--9--9--9--9--9-12//-|

CHORUS1
|---------------------------------------------------
|---------------------------------------------------
|----------------------12--12--12-12-12--12--12-12--
|--2--2--2-2-2--2--2-2-10--10--10-10-10--10--10-10--
|--2--2--2-2-2--2--2-2-10--10--10-10-10--10--10-10--
|--2--2--2-2-2--2--2-2-10--10--10-10-10--10--10-10--

|----------------------------------------------------------|
|----------------------------------------------------------|
|--9--9--9-9-9--9--9-9-11-11-111111------------------------|
|--7--7--7-7-7--7--7-7--9--9--9-9-9--9/7-0^5-0^3-0^2-------|
|--7--7--7-7-7--7--7-7--9--9--9-9-9--9/7-0^5-0^3-0^2-------|
|--7--7--7-7-7--7--7-7--9--9--9-9-9--9/7-0^5-0^3-0^2-2//7--|

CHORUS2
|---------------------------------------------------
|---------------------------------------------------
|----------------------12--12--12-12-12--12--12-12--
|--2--2--2-2-2--2--2-2-10--10--10-10-10--10--10-10--
|--2--2--2-2-2--2--2-2-10--10--10-10-10--10--10-10--
|--2--2--2-2-2--2--2-2-10--10--10-10-10--10--10-10--

|----------------------------------------------|
|----------------------------------------------|
|--9--9--9-9-9--9--9-9-11-11-111111-11111111---|
|--7--7--7-7-7--7--7-7--9--9--9-9-9--9-9-9-9---|
|--7--7--7-7-7--7--7-7--9--9--9-9-9--9-9-9-9---|
|--7--7--7-7-7--7--7-7--9--9--9-9-9--9-9-9-9---|

|---------------------------------------------------
|---------------------------------------------------
|----------------------12--12--12-12-12--12--12-12--
|--2--2--2-2-2--2--2-2-10--10--10-10-10--10--10-10--
|--2--2--2-2-2--2--2-2-10--10--10-10-10--10--10-10--
|--2--2--2-2-2--2--2-2-10--10--10-10-10--10--10-10--

|--------------------------------------------|
|--------------------------------------------|
|--9--9--9-9-9--9--9-9-11-11-111111----------|
|--7--7--7-7-7--7--7-7--9--9--9-9-9--9/7--4--|
|--7--7--7-7-7--7--7-7--9--9--9-9-9--9/7--4--|
|--7--7--7-7-7--7--7-7--9--9--9-9-9--9/7--4--|


BRIDGE1
|----------0--------------------0--------------------0--------------------0--------------|
|-(5)------0--------------------0--------------------0--------------------0--------------|
|-(5)------0--------------------0--------------------0--------------------0--------------|
|-(5)-4-4--4--6-5-5-8-7-7--4-4--4--6-5-5-8-7-7--4-4--4--6-5-5-8-7-7--4-4--4--6-5-5-8-7-7-|
|-----4-4-----6-5-5-8-7-7--4-4-----6-5-5-8-7-7--4-4-----6-5-5-8-7-7--4-4-----6-5-5-8-7-7-|
|-----4-4-----6-5-5-8-7-7--4-4-----6-5-5-8-7-7--4-4-----6-5-5-8-7-7--4-4-----6-5-5-8-7-7-|

BRIDGE2
|--------------------0--------------------0--------------------0---------------
|--------------------0--------------------0--------------------0---------------
|--------------------0--------------------0--------------------0---------------
|----X///////---4-4--4--6-5-5-8-7-7--4-4--4--6-5-5-8-7-7--4-4--4--6-5-5-8-7-7--
|----X///////---4-4-----6-5-5-8-7-7--4-4-----6-5-5-8-7-7--4-4-----6-5-5-8-7-7--
|-4--X///////---4-4-----6-5-5-8-7-7--4-4-----6-5-5-8-7-7--4-4-----6-5-5-8-7-7--

|-------0---------------------------------------------------------------------------
|-------0---------------------------------------------------------------------------
|-------0---------------------------------------------------------------------------
|--4-4--4--6-5-5-8-7-7--4-4--4-4--4-4--4-4--4-4--4-4--4-4--4-4--4-4--4-4--4-4--4-4--
|--4-4-----6-5-5-8-7-7--4-4--4-4--4-4--4-4--4-4--4-4--4-4--4-4--4-4--4-4--4-4--4-4--
|--4-4-----6-5-5-8-7-7--4-4--4-4--4-4--4-4--4-4--4-4--4-4--4-4--4-4--4-4--4-4--4-4--

|---------------------|
|---------------------|
|---------------------|
|-4-4--4-4--4-4--0-7--|
|-4-4--4-4--4-4--0-7--|
|-4-4--4-4--4-4--0-7--|

Structure
INTRO     X1
VERSE     X4
PRECHORUS X1
CHORUS1   X1
VERSE     X2
PRECHORUS X1
CHORUS2   X1
Bass riff
BRIDGE1   X1
Bass riff
BRIDGE2   X1





Comments


Popular Unsigned tabs & chords
2thumbsdown 1 Bass Tabs
7th Solution - Black Widow Bass Tabs
Copper Flame - P.P.S Bass Tabs
Meat - Better Than Nothing Bass Tabs
Painted Cow Faces - Sesame Street Bass Tabs
Something 1 Bass Tabs
Animosity - Erics Riffs Tabs
Branded-Waiting Tabs
Dayz Never Done-Shibby Tabs
Fading Out - We Know Its You Tabs


Song lyrics



↑ Back to top | Tablatures and chords are parodies/interpretations of the original songs. You may use it for private study, scholarship, research or language learning purposes only
© 2014 AZChords.com Contact us | Privacy policy | DMCA | Add/correct tabs | Request tabs | Top 50 tabs