» » »

Unsigned, E B C Band - We Smoke Together Tabs (ver.1)

Artists:  A B C D E F G H I J K L M N O P Q R S T U V W X Y Z # 

E B C Band - We Smoke Together Tabs (ver.1)

Unsigned Tabs
 Rating:
4/5 (4 votes)
E B C Band - We Smoke Together lessons Tabs too difficult? Try these video lessons and learn fast
                
Tuning: Drop C (C G C F A D)

Intro/Chorus
|----------------------------------|
|----------------------------------|
|----------------------------------|
|----------------------------------|
|-------12-12------13-13-----13-13-|
|-0-0-0-------0--0-------0-0-------|x7

Fill
|----------------------------|
|----------------------------|
|----------------------------|
|------------------------11\-|
|-------12-12------13-13-11\-|
|-0-0-0-------0--0-------11\-|

Verse
|-------------------------------------------|
|-------------------------------------------|
|-------------------------------------------|
|-0--x-x-0--x-x-6--6-6--0--x-x-0--x-x-5p3-0-|
|-0--x-x-0--x-x-6--6-6--0--x-x-0--x-x-5p3-0-|
|-0--x-x-0--x-x-6--6-6--0--x-x-0--x-x-5p3-0-|

|-------------------------------------------|
|-------------------------------------------|
|-------------------------------------------|
|-0--x-x-0--x-x-6--6-6--0--x-x-0--x-x--x--x-|
|-0--x-x-0--x-x-6--6-6--0--x-x-0--x-x--x--x-|
|-0--x-x-0--x-x-6--6-6--0--x-x-0--x-x--x--x-|

|--------------------------------------------------------------------|
|--------------------------------------------------------------------|
|--------------------------------------------------------------------|
|-0--x-x-0--x-x-6--6-6--0--x-x-0--x-x-5p3-0--0--x-x-0--x-x-6--6-6-6~-|
|-0--x-x-0--x-x-6--6-6--0--x-x-0--x-x-5p3-0--0--x-x-0--x-x-6--6-6-6~-|
|-0--x-x-0--x-x-6--6-6--0--x-x-0--x-x-5p3-0--0--x-x-0--x-x-6--6-6-6~-|

Chorus is the Intro played 3 times and play the fill at the end.
Play the 2nd Verse with the first 2 riffs the first time then play
the first riff 2 times then play this then play this:
|----------------------------------------------------|
|----------------------------------------------------|
|-7--7-7-7-7--7-7--7-7-10--10-10-10-10--10-10--10-10-|
|-5--5-5-5-5--5-5--5-5-8---8--8--8--8---8--8---8--8--|
|-5--5-5-5-5--5-5--5-5-8---8--8--8--8---8--8---8--8--|
|-5--5-5-5-5--5-5--5-5-8---8--8--8--8---8--8---8--8--|

2nd Chorus
|----------------------------------|
|----------------------------------|
|----------------------------------|
|----------------------------------|
|-------12-12------13-13-----13-13-|
|-0-0-0-------0--0-------0-0-------|x2

|----------------------------------------------------|
|----------------------------------------------------|
|-7--7-7-7-7--7-7--7-7-10--10-10-10-10--10-10--10-10-|
|-5--5-5-5-5--5-5--5-5-8---8--8--8--8---8--8---8--8--|
|-5--5-5-5-5--5-5--5-5-8---8--8--8--8---8--8---8--8--|
|-5--5-5-5-5--5-5--5-5-8---8--8--8--8---8--8---8--8--|
Repeat both these riffs twice.

|----------------------------------|
|----------------------------------|
|----------------------------------|
|----------------------------------|
|-------12-12------13-13-----13-13-|
|-0-0-0-------0--0-------0-0-------|x4

Bridge
|------|
|------|
|------|
|-0~~~-|
|-0~~~-|
|-0~~~-|

|-------------------------|
|-------------------------|
|-------------------------|
|-----5-----5-----0-----0-|
|---3-----3-----0-----0---|
|-3-----3-----0-----0-----|x3 1/2


|--------------------------------------------------------------------|
|--------------------------------------------------------------------|
|--------------------------------------------------------------------|
|-0--x-x-0--x-x-6--6-6--0--x-x-0--x-x-5p3-0--0--x-x-0--x-x-6--6-6-6~-|
|-0--x-x-0--x-x-6--6-6--0--x-x-0--x-x-5p3-0--0--x-x-0--x-x-6--6-6-6~-|
|-0--x-x-0--x-x-6--6-6--0--x-x-0--x-x-5p3-0--0--x-x-0--x-x-6--6-6-6~-|


Chorus
|----------------------------------|
|----------------------------------|
|----------------------------------|
|----------------------------------|
|-------12-12------13-13-----13-13-|
|-0-0-0-------0--0-------0-0-------|x4

|----------------------------------------------------|
|----------------------------------------------------|
|-7--7-7-7-7--7-7--7-7-10--10-10-10-10--10-10--10-10-|
|-5--5-5-5-5--5-5--5-5-8---8--8--8--8---8--8---8--8--|
|-5--5-5-5-5--5-5--5-5-8---8--8--8--8---8--8---8--8--|
|-5--5-5-5-5--5-5--5-5-8---8--8--8--8---8--8---8--8--|

|----------------------------------|
|----------------------------------|
|----------------------------------|
|----------------------------------|
|-------12-12------13-13-----13-13-|
|-0-0-0-------0--0-------0-0-------|x2

|----------------------------------------------------|
|----------------------------------------------------|
|-7--7-7-7-7--7-7--7-7-10--10-10-10-10--10-10--10-10-|
|-5--5-5-5-5--5-5--5-5-8---8--8--8--8---8--8---8--8--|
|-5--5-5-5-5--5-5--5-5-8---8--8--8--8---8--8---8--8--|
|-5--5-5-5-5--5-5--5-5-8---8--8--8--8---8--8---8--8--|

|----------------------------------|
|----------------------------------|
|----------------------------------|
|----------------------------------|
|-------12-12------13-13-----13-13-|
|-0-0-0-------0--0-------0-0-------|x4

|----------------------------|
|----------------------------|
|----------------------------|
|-0-0-0-7-7-0--0-8-8-0-0-8-8-|
|-0-0-0-7-7-0--0-8-8-0-0-8-8-|
|-0-0-0-7-7-0--0-8-8-0-0-8-8-|x4
            
Submit corrections

comments powered by Disqus
↑ Back to top | Unsigned Tabs for E B C Band - We Smoke Together. Lyrics for acoustic guitar and electric guitar. Tablatures and chords are parodies/interpretations of the original songs. You may use it for private study, scholarship, research or language learning purposes only