» » »

E B C Band - Getaway Tabs (ver.1)

Artists:  A B C D E F G H I J K L M N O P Q R S T U V W X Y Z # 

E B C Band - Getaway Tabs (ver.1)

Unsigned
Rating:
0/5 (0 votes)

Hard to play? Try these video lessons and learn fast.
                

INTRO:
--0-0-----------------------------------------------0-0---3---5--6--5---3-----
--0-0-----------------------------------------x4----0-0---3---5--6--5---3-----
--0-0---17/18-18-18--17/18-18-18-17/18-18-18--------0-0---3---5--6--5---3-----
                                                                     


VERSE:
--0-0-------------------------------------------------------------------------
--0-0---------------------------------------x4--------------------------------
--0-0---17/18-18-18-17/18-18-18-17/18-18-18-----------------------------------
       
                                                                      


PRE-CHORUS:
--3--------------3------------------------------------------------------------
--2--------------2------------------------------------------------------------
--0------6-------0----5-6-5-6-5-6-5-6-----x2----------------------------------
--0------6-------0----5-6-5-6-5-6-5-6-----------------------------------------
--0------6-------0----5-6-5-6-5-6-5-6-----------------------------------------
                                                                              


CHORUS:
--0-0----3---5--6---5---------0-0----3---5--6---5-----------------------------
--0-0----3---5--6---5---------0-0----3---5--6---5-----------------------------
--0-0----3---5--6---5---------0-0----3---5--6---5-----------------------------
                                                                              


BRIDGE:
--3---------------------------------------------------------------------------
--2---------------------------------------------------------------------------
--0---------------2****************-------------------------------------------
--0---------------2****************-------------------------------------------
--0---------------------------------------------------------------------------
    LET RING       (--PICK Scr*pE--)
            
Hard to play? Try these video lessons and learn fast. | Correct




comments powered by Disqus
↑ Back to top | Tablatures and chords are parodies/interpretations of the original songs. You may use it for private study, scholarship, research or language learning purposes only