» » »

Unsigned, Dwain Fletcher - Lawless Tabs (ver.1)

Artists:  A B C D E F G H I J K L M N O P Q R S T U V W X Y Z # 

Dwain Fletcher - Lawless Tabs (ver.1)

Unsigned Tabs
Rating:
0/5 (0 votes)
Dwain Fletcher - Lawless lessons Tabs too difficult? Try these video lessons and learn fast
                Tuning: Standard

E [-------------------------------------------------------------------]
B [-------------------------------------------------------------------]
G [-------------------------------------------------------------------]
D [-------------------------------------------------------------------]
A [11-11-11-11-11/-9-9-9-9-9/-7-7-7-7-7/-11-11-11-11-11-~-------------]
E [9--9--9--9--9/--7-7-7-7-7/-5-5-5-5-5/-9--9--9--9--9----------------]
      pm    pm       pm  pm     pm  pm     pm    pm
pm alternatly, this is played slow! play the power chord then pm before
going into the next, when you play the last of each chord slide straight
into the next. let the very last 1 ring before going to the verse.

verse
E [-------------------------------------------------------------------]
B [-------------------------------------------------------------------]
G [-------------------------------------------------------------------]
D [-------9--9--9--9-0-----------8-8-8-8-0----------------------------]
A [11-11--7--7--7--7-0----10-10--6-6-6-6-0----------------------------]
E [9--9-------------------8--8----------------------------------------]
  hu man res tor at ion ..................


E [-------------------------------------------------------------------]
B [-------------------------------------------------------------------]
G [-------------------------------------------------------------------]
D [-------------------------------11~---------------------------------]
A [11-11---9---9---9---9----9-9---9-----------------------------------]
E [9--9----7---7---7---7----7-7---------------------------------------]
  law less ex pec tat ions .............



E [---------------------------------------------------------------------------------]
B [---------------------------------------------------------------------------------]
G [---------------------------------------------------------------------------------]
D [-11-0------------9-9-9-9-0-----------------11-11-11-11-0---------9-9-9-9-0-------]
A [-9--0---11-11----7-7-7-7-0-------9-9-------9--9--9--9--0--11-11--7-7-7-7-0-9---11]
E [--------9--9---------------------7-7----------------------9--9-------------7x6-9-]
   in  a world so  law less in a   law less   life its a....................liiive in


chorus
E [-------------------------------------------------------------------]
B [-------------------------------------------------------------------]
G [-------------------------------------------------------------------]
D [----------------------10-10-10-0-----------------------------------]
A [-11-11-11-11---11-11--8--8--8--0--8-8-8-8-8------------------------]
E [-9--9--9--9----9--9---------------6-6-6-6-6------------------------]
  it on ly takes but a   sec ond to  die
play 3x, different word on end each time (see the lyrics at bottom)


intro for middle
E [-------------------------------------------------------------------]
B [-------------------------------------------------------------------]
G [-------------------------------------------------------------------]
D [-------------------------------------------------------------------]
A [11-11-11-11-11/-9-9-9-9-9/-7-7-7-7-7/-11-11-11-11-11-~-------------]
E [9--9--9--9--9/--7-7-7-7-7/-5-5-5-5-5/-9--9--9--9--9----------------]
      pm    pm       pm  pm     pm  pm     pm    pm
play 2x



verse 2
E [-------------------------------------------------------------------]
B [-------------------------------------------------------------------]
G [-------------------------------------------------------------------]
D [-------9--9--9--9-0-----------8-8-8-8-0----------------------------]
A [11-11--7--7--7--7-0----10-10--6-6-6-6-0----------------------------]
E [9--9-------------------8--8----------------------------------------]
  hu mans rock ass n.......................
follow the same singing pattern as with verse 1, with the singing

E [-------------------------------------------------------------------]
B [-------------------------------------------------------------------]
G [-------------------------------------------------------------------]
D [-------------------------------11~---------------------------------]
A [11-11---9---9---9---9----9-9---9-----------------------------------]
E [9--9----7---7---7---7----7-7---------------------------------------]



E [---------------------------------------------------------------------------------]
B [---------------------------------------------------------------------------------]
G [---------------------------------------------------------------------------------]
D [-11-0------------9-9-9-9-0-----------------11-11-11-11-0---------9-9-9-9-0-------]
A [-9--0---11-11----7-7-7-7-0-------9-9-------9--9--9--9--0--11-11--7-7-7-7-0-9---11]
E [--------9--9---------------------7-7----------------------9--9-------------7x6-9-]



chorus
E [-------------------------------------------------------------------]
B [-------------------------------------------------------------------]
G [-------------------------------------------------------------------]
D [----------------------10-10-10-0-----------------------------------]
A [-11-11-11-11---11-11--8--8--8--0--8-8-8-8-8------------------------]
E [-9--9--9--9----9--9---------------6-6-6-6-6------------------------]
  it on ly takes but a   sec ond to  die
play 3x, different word on end each time (see the lyrics at bottom)


outro
E [-------------------------------------------------------------------]
B [-------------------------------------------------------------------]
G [-------------------------------------------------------------------]
D [-------------------------------------------------------------------]
A [11-11-11-11-11/-9-9-9-9-9/-7-7-7-7-7/-11-11-11-11-11-~-------------]
E [9--9--9--9--9/--7-7-7-7-7/-5-5-5-5-5/-9--9--9--9--9----------------]
      pm    pm       pm  pm     pm  pm     pm    pm
play 2x

on the second time dont play all of the last strums of the last chord
just do 1 and hammer it
            

comments powered by Disqus
↑ Back to top | Unsigned Tabs for Dwain Fletcher - Lawless. Lyrics for acoustic guitar and electric guitar. Tablatures and chords are parodies/interpretations of the original songs. You may use it for private study, scholarship, research or language learning purposes only