» » »

Unsigned, Duxsik - Hate This Life Bass tabs (ver.1)

Artists:  A B C D E F G H I J K L M N O P Q R S T U V W X Y Z # 

Duxsik - Hate This Life Bass tabs (ver.1)

Unsigned Tabs
 Rating:
4/5 (4 votes)
Duxsik - Hate This Life lessons Tabs too difficult? Try these video lessons and learn fast
                This song is by my band called “Duxsik,” it’s our first song and probably one of our most catchy ones as well, I hope you all like it.

Tuning in drop-d

	Verse
G|---------------------------------------------------------
D|---------------------------------------------------------
A|---------------------------------------------------------
D|-7------2------4------0------7------2------4------0------

G|---------------------------------------------------------
D|---------------------------------------------------------
A|---------------------------------------------------------
D|-7------2------4------0------7------2------4-------------

	Chorus
G|--------------------------------
D|--------------------------------
A|--------------------------------
D|-4--4------2--2------7--7--7--7-

	Repeated 3 more times

	Bridge

G|-----------------------------------------------------
D|-----------------------------------------------------
A|-----------------------------------------------------
D|-7------------2------------4------------0------------

	Repeated 5 more times

	Interlude

G|-------------------------------------------------------------------------
D|-------------------------------------------------------------------------
A|----------7------7------7------7-------------2------2------2-------2-----
D|-7-7-7-7----7-7----7-7----7-7----7-7-2-2-2-2----2-2----2-2----2-2----2-2-

G|-------------------------------------------------------------------------
D|-------------------------------------------------------------------------
A|----------4------4------4-------4------------0------0------0-------0-----
D|-4-4-4-4----4-4----4-4----4-4----4-4-0-0-0-0----0-0----0-0----0-0----0-0-


Section order:
Verse
Chorus
Verse
Chorus
Bridge
Chorus
Interlude
Chorus

Many thank to Robert Brown (band name: Black), the guitarist in my band, for writing such a great song.

Other band members:
Caspar Sutton-Jones (Cancer)
Robert Findon (Lord Spankenstein)
            
Submit corrections

comments powered by Disqus
↑ Back to top | Unsigned Bass for Duxsik - Hate This Life. Lyrics for acoustic guitar and electric guitar. Tablatures and chords are parodies/interpretations of the original songs. You may use it for private study, scholarship, research or language learning purposes only