» » »

Unsigned, Duxsik - Flower Childrens Children Bass tabs (ver.1)

Artists:  A B C D E F G H I J K L M N O P Q R S T U V W X Y Z # 

Duxsik - Flower Childrens Children Bass tabs (ver.1)

Unsigned Tabs
Rating:
0/5 (0 votes)
Duxsik - Flower Childrens Children lessons Tabs too difficult? Try these video lessons and learn fast
                Tuning: Dropped-D: DADG

Verse
G|-------------------------------
D|-------------------------------
A|-----------------------------6-
D|-0-0-0-0-2-0-0-4-5-0-0-0-7-8---

Chorus
G|------------------------------------------------
D|------------------------------------------------
A|-6-6-6-6-6-6-6-6-6-6-6-6-6-6-6-6-6-6-6-6-6-6-6-6
D|------------------------------------------------

G|------------------------------------------------
D|------------------------------------------------
A|-6-6-6-6-6-6-6-6-6-6-6-6-6-6-6-6-6-6-6-6-6-6-6-6
D|------------------------------------------------

Order:
Verse X4
Chorus X1
Verse X4
Chorus X1
Verse X4
Chorus X1
Verse X4
            
Submit corrections

comments powered by Disqus
↑ Back to top | Unsigned Bass for Duxsik - Flower Childrens Children. Lyrics for acoustic guitar and electric guitar. Tablatures and chords are parodies/interpretations of the original songs. You may use it for private study, scholarship, research or language learning purposes only