» » »

Dum Bass - Destructable Indestructable Tabs (ver.1)

Artists:  A B C D E F G H I J K L M N O P Q R S T U V W X Y Z # 

Dum Bass - Destructable Indestructable Tabs (ver.1)

Unsigned
Rating:
0/5 (0 votes)

Hard to play? Try these video lessons and learn fast.
                Key: Palm mute= Pm.

Intro:

e|----------------------------------------------------------------
B|----------------------------------------------------------------
G|----------------------------------------------------------------  x4
D|-------5-5-5-4-4-------4-4-4-5-5-------4-4-4-5-5-------4-4-4-5-5
A|-2-2-2-----------5-5-5-----------5-5-5-----------5-5-5----------
E|----------------------------------------------------------------

Verse:

e|--------------------------------------------------------
B|--------------------------------------------------------
G|-4-4--4-4-4--4---------------7-7--7-7-7--7-2-2--2-2-2--2  x4
D|-4-4--4-4-4--4-5-5--5-5-5--5-7-7--7-7-7--7-2-2--2-2-2--2
A|-2-2--2-2-2--2-5-5--5-5-5--5-5-5--5-5-5--5-0-0--0-0-0--0
E|---------------3-3--3-3-3--3----------------------------

Chorus:

e|------------------------------------------------------------
B|------------------------------------------------------------
G|----------------2-2--2-2-2--2-----------------4-4--4-4-4--4-  x4
D|-4-4--4-4-4--4--2-2--2-2-2--2--2-2--2-2-2--2--4-4--4-4-4--4-
A|-4-4--4-4-4--4--0-0--0-0-0--0--2-2--2-2-2--2--2-2--2-2-2--2-
E|-2-2--2-2-2--2-----------------0-0--0-0-0--0----------------

Intro x4

Verse x4

Chorus

Intro x2

e|------------------------------------------------------------------
B|------------------------------------------------------------------
G|------------------------------------------------------------------
D|---5-----5-----5-----5-----5---5-----5-----5-----5-----5-----5---5
A|-2---2-2---2-2---2-2---2-2---2---3-3---3-3---3-3---3-3---3-3---3--
E|------------------------------------------------------------------
Pm .   . .   . .   . .   . .   .   . .   . .   . .   . .   . .   .

e|------------------------------------------------------------------
B|------------------------------------------------------------------
G|------------------------------------------------------------------  x2
D|-----5-----5-----5-----5-----5-------7-----7---7-----10-----9-----
A|-7-7---7-7---7-7---7-7---7-7---7-5-5---5-5---5---7-7----7-7-------
E|------------------------------------------------------------------
Pm . .   . .   . .   . .   . .   . . .   . .   .   . .    . .
   
e|-------------------------------------------------------------------
B|-------------------------------------------------------------------
G|-------------------------------------------------------------------
D|-4-4-4-4-4-4-4-4-5-5-5-5-5-5-5-5-5-5-5-5-5-5-5-5-7-7-7-10-10-10-9-9
A|-2-2-2-2-2-2-2-2-3-3-3-3-3-3-3-3-7-7-7-7-7-7-7-7-5-5-5-7- 7- 7- 7 7
E|-------------------------------------------------------------------

Chorus

Intro x2

On secend Time:

e|-------------------------------------------------------------------------
B|-------------------------------------------------------------------------
G|-----------------------------------------------------------7-------------
D|-------5-5-5-4-4-4-------4-4-4-5-5-5-------4-4-4-5--5--5---7-------------
A|-2-2-2-------------5-5-5-------------5-5-5-----------------5-------------
E|-------------------------------------------------------------------------
            
Hard to play? Try these video lessons and learn fast. | Correct




comments powered by Disqus
↑ Back to top | Tablatures and chords are parodies/interpretations of the original songs. You may use it for private study, scholarship, research or language learning purposes only