» » »

Unsigned, Dropouts- This Is How I Feel Tabs (ver.1)

Artists:  A B C D E F G H I J K L M N O P Q R S T U V W X Y Z # 

Dropouts- This Is How I Feel Tabs (ver.1)

Unsigned Tabs
Rating:
0/5 (0 votes)
Dropouts- This Is How I Feel lessons Tabs too difficult? Try these video lessons and learn fast
                e-----2-----------5-----------3------------------------------------------------------------------------------
b-----2-----------5-----------5-----------------------------------------------------------------------------
d-----4-----------7-----------5------------------------------------------------------------------------------
d-----4-----------7-----------3-----------------------------------------------------------------------------
a-----2-----------5-----------3------------------------------------------------------------------------------
e-----2-----------5-----------3------------------------------------------------------------------------------
       
      B           D           G

verse:

e-------2----5-----5--------------------------------------------------------------------------------------
b-------0----0-----3------------------------------------------------------------------------------------
d---------------------------------------------------------------------------------------------------------
d--------------------------------------------------------------------------------------------------------
a---------------------------------------------------------------------------------------------------------
e---------------------------------------------------------------------------------------------------------

note: during the verse, the intro is played in the backround:

e-----2-----------5-----------3------------------------------------------------------------------------------
b-----2-----------5-----------5-----------------------------------------------------------------------------
d-----4-----------7-----------5------------------------------------------------------------------------------
d-----4-----------7-----------3-----------------------------------------------------------------------------
a-----2-----------5-----------3------------------------------------------------------------------------------
e-----2-----------5-----------3------------------------------------------------------------------------------

chorus:

e-----3-------2------5------4---------------------------------------------------------------------------
b-----5-------4------7------6---------------------------------------------------------------------------
d-----5-------4------7------6----------------------------------------------------------------------------
d-----3-------2------5------4----------------------------------------------------------------------------
a-----3-------2------5------4-----------------------------------------------------------------------------
e-----3-------2------5------4-----------------------------------------------------------------------------

       G      F#     A     G#


verse 1:

no one knows, how it feels (feels inside)
but i get by
no one knows,  how it feels to be a freak
and i dont want to know
what it feels like

verse 2:

this is how i feel
its almost over
but its o.k.
its not ok
no control, over the rain
no control, over my pain
to keep my sane
ill have to go insane

chorus: 

but i dont know what to do
cuz your always there
picking out things thast you think are fair
wish there was one thing that we can not share

song order:

intro
verse 1
chorus
intro
verse 2
chorus
intro
            
Submit corrections

comments powered by Disqus
↑ Back to top | Unsigned Tabs for Dropouts- This Is How I Feel. Lyrics for acoustic guitar and electric guitar. Tablatures and chords are parodies/interpretations of the original songs. You may use it for private study, scholarship, research or language learning purposes only