» » »

Unsigned, Dr Jones Bass tabs (ver.1)

Artists:  A B C D E F G H I J K L M N O P Q R S T U V W X Y Z # 

Dr Jones Bass tabs (ver.1)

Unsigned Tabs
 Rating:
4/5 (4 votes)
Dr Jones lessons Tabs too difficult? Try these video lessons and learn fast
                Intro/verse
G:--------------------------------------------
D:--------------------------------------------
A:--------------------------------------------8x
E:- 0-0-0-0--7-7-8-8–7-7 0-0- 0-0-0-0-0-0-

Verse(cont.)
G:--------------------------------------------
D:--------------------------------------------2x
A:--------------------------------------------
E:- 0-0-0-0-0-0-0---7-7-7-7-7-8-8-8-7-7-7-7-0-0-0-0

Breakdown

G:--------------------------------------------
D:--------------------------------------------3x
A:--------7-7------7-7---------------------------
E:- 0-0-------8-8-----0-0- -7-8-9-10-0- - 
 Outro
G:--------------------------------------------
D:--------------------------------------------
A:--------------------------------------------
E:- 0~-----7-8-7-8-7-8-0~-------
            
Submit corrections

comments powered by Disqus
↑ Back to top | Unsigned Bass for Dr Jones. Lyrics for acoustic guitar and electric guitar. Tablatures and chords are parodies/interpretations of the original songs. You may use it for private study, scholarship, research or language learning purposes only