» » »

Unsigned, Dougal - Leave Me Alone Bass tabs (ver.1)

Artists:  A B C D E F G H I J K L M N O P Q R S T U V W X Y Z # 

Dougal - Leave Me Alone Bass tabs (ver.1)

Unsigned Tabs
 Rating:
4/5 (4 votes)
Dougal - Leave Me Alone lessons Tabs too difficult? Try these video lessons and learn fast
1
                Instrument: Bass


INTRO:
G:-----------------------|
D:-33333-5555------------|
A:------------5-33333333-|x4
E:-----------------------|

VERSE:
G:-------------------------------------|
D:-33333333----------------------------|
A:----------33333333-11111111-33333333-|x4
E:-------------------------------------|

CHORUS:
G:----------------------------|
D:-33333-5555-----------------|
A:-----------5-33333333-*210*-|x4
E:----------------------------|*Play On The Second Time Only

PRE VERSE:
G:-----------------------|
D:-33333-5555------------|
A:------------5-33333333-|x2
E:-----------------------|

VERSE:
G:-------------------------------------|
D:-33333333----------------------------|
A:----------33333333-11111111-33333333-|x2
E:-------------------------------------|

CHORUS:
G:----------------------------|
D:-33333-5555-----------------|
A:-----------5-33333333-*210*-|x4
E:----------------------------|*Play On The Second Time Only

BRIDGE:
G:--232--454-----------|
D:-3----5-----232--232-|
A:-----------3----3----|
E:---------------------|

G:--232--454-----------|
D:-3----5-----232--232-|
A:-----------3----3----|
E:---------------------|

G:--22332--44554-------------|
D:-3------5-------2233253223-|
A:---------------3-----------|
E:---------------------------|

G:--22332--44554---------------|
D:-3------5-------22332--22332-|
A:---------------3------3------|
E:-----------------------------|

CHORUS:
G:----------------------|
D:-33333-5555-----------|
A:-----------5-33333333-|
E:----------------------|

G:-------------------------|
D:-33333-5555--------------|
A:-----------5-33333333210-|
E:-------------------------|

G:------------------------------|
D:-33333-5555-------------------|
A:-----------5/1515151515151515-|
E:------------------------------|

G:----------------------|
D:-33333-5555-----------|
A:-----------5-33333333-|
E:----------------------|

OUTRO:
G:-----------------------|
D:-33333-5555------------|
A:------------5-33333333-|x2
E:-----------------------|
            
Submit corrections

comments powered by Disqus
↑ Back to top | Unsigned Bass for Dougal - Leave Me Alone. Lyrics for acoustic guitar and electric guitar. 1 Tablatures and chords are parodies/interpretations of the original songs. You may use it for private study, scholarship, research or language learning purposes only