» » »

Unsigned, Dodgy Specimen - Something Half Decent Tabs (ver.1)

Artists:  A B C D E F G H I J K L M N O P Q R S T U V W X Y Z # 

Dodgy Specimen - Something Half Decent Tabs (ver.1)

Unsigned Tabs
Rating:
0/5 (0 votes)
Dodgy Specimen - Something Half Decent lessons Tabs too difficult? Try these video lessons and learn fast
                DoDgY SpEcImEn
Something half decent  
Dropped D
This song is fast but its easy when u get into it
Intro lead comes in for 1 bar then bass comes in 2nd time
E------------------------------------------------------------------------
B------------------------------------------------------------------------
G------------------------------------------------------------------------
D--3-3-3-3-3-3-3-3--6--4--5--3-3-3-3-3-3-3-3--6--4--7--(3)-last time only
A--3-3-3-3-3-3-3-3--6--4--5--3-3-3-3-3-3-3-3--6--4--7--(3)--let ring-----
D--3-3-3-3-3-3-3-3--6--4--5--3-3-3-3-3-3-3-3--6--4--7--(3)---------------play 2x

Verse 
E------------------------------------------------------------------------
B------------------------------------------------------------------------
G------------------------------------------------------------------------
D-3-3-3-3-3-3-3-3-6-6-6-6-6-6-6-6-3-3-3-3-3-3-3-3-6-6-6-6-6-6-6-6-4-3----
A-3-3-3-3-3-3-3-3-6-6-6-6-6-6-6-6-3-3-3-3-3-3-3-3-6-6-6-6-6-6-6-6-4-3----
D-3-3-3-3-3-3-3-3-6-6-6-6-6-6-6-6-3-3-3-3-3-3-3-3-6-6-6-6-6-6-6-6-4-3play4x

Chorus
E------------------------------------------------------------------
B------------------------------------------------------------------
G-7-7-7-7-7-7-7-7-9-9-9-9-9-9-9-9-6-6-6-6-6-6-6-6-5-5-5-5-5-5-5-5--
D-7-7-7-7-7-7-7-7-9-9-9-9-9-9-9-9-6-6-6-6-6-6-6-6-5-5-5-5-5-5-5-5--
A-5-5-5-5-5-5-5-5-7-7-7-7-7-7-7-7-4-4-4-4-4-4-4-4-3-3-3-3-3-3-3-3--
D------------------------------------------------------------------play 4x

Song Order
Intro
Verse
Chorus
Intro 
Verse 
Chorus
Intro
            

comments powered by Disqus
↑ Back to top | Unsigned Tabs for Dodgy Specimen - Something Half Decent. Lyrics for acoustic guitar and electric guitar. Tablatures and chords are parodies/interpretations of the original songs. You may use it for private study, scholarship, research or language learning purposes only