» » »

Dodgy Specimen - Lifes A Lie Tabs (ver.1)

Artists:  A B C D E F G H I J K L M N O P Q R S T U V W X Y Z # 

Dodgy Specimen - Lifes A Lie Tabs (ver.1)

Unsigned
Rating:
0/5 (0 votes)

Hard to play? Try these video lessons and learn fast.
                DoDgY SpEcImEn
Life's a Lie 
Use distortion all the way thru 
INTRO
E----------------------------------------------------------------------
B----------------------------------------------------------------------
G-------11--11---11--11------14--14--14--14---9--9--9--9---7--7--7--7--
D-----9----9-----9---9-------12--12--12--12---7--7--7--7---5--5--5--5--
A----------------------------------------------------------------------
D----------------------------------------------------------------------

CHORUS
E----------------------------------------------------------------------
B----------------------------------------------------------------------
G-----11--11---11--11------14--14--14--14---9--9--9--9---7--7--7--7----
D-----11--11---11--11------14--14--14--14---9--9--9--9---7--7--7--7----
A-----9---9----9---9-------12--12--12--12---7--7--7--7---5--5--5--5----
D----------------------------------------------------------------------

VERSE 
E------------------------------------------------------------------------
B------------------------------------------------------------------------
G------------------------------------------------------------------------
D-----7--7--7--7----10--10--10--10---5--5--5--5---3--3--3--3-------------
A-----7--7--7--7----10--10--10--10---5--5--5--5---3--3--3--3-------------
D-----7--7--7--7----10--10--10--10---5--5--5--5---3--3--3--3-------------

Outro
E----------------------------------------------------------------
B----------------------------------------------------------------
G----------------------------------------------------------------
D---------7----7----10----10-----5----5----3-----3-<(on last time let ring)
A-------7----7----10----10-----5----5----3-----3-----------------
D-----7----7----10----10-----5----5----3-----3-------------------

Song Order
Intro x2
Chorus x2
Verse x2
Chorus x2
Verse x2
Chorus x2
Outro 2x 
            
Hard to play? Try these video lessons and learn fast. | Correct




comments powered by Disqus
↑ Back to top | Tablatures and chords are parodies/interpretations of the original songs. You may use it for private study, scholarship, research or language learning purposes only