» » »

Unsigned, Disposable Heroes - Wretch Tabs (ver.1)

Artists:  A B C D E F G H I J K L M N O P Q R S T U V W X Y Z # 

Disposable Heroes - Wretch Tabs (ver.1)

Unsigned Tabs
 Rating:
4/5 (4 votes)
Disposable Heroes - Wretch lessons Tabs too difficult? Try these video lessons and learn fast
1
                Tuning Standard (E A D G B e)

Intro/Verse
G|------------------------------------------------|
D|------------------------------------------------|
A|-----4-----5-----7--7-7------4-----5-----7--9-9-|
E|-0-0-2-0-0-3-0-0-5--5-5--0-0-2-0-0-3-0-0-5--7-7-|

Chorus
G|-----------------------------------------------| repeat twice
D|-----------------------------------------------|
A|-----3-----3-----3--4-4------3-----3-----3--4-5|
E|-0-0-1-0-0-1-0-0-1--2-2--0-0-1-0-0-1-0-0-1--2-3|
                                                  #
G|----------------------------------------------------|
D|----------------------------------------------------|
A|------3-----3-----3-----4-4------3-----3-----3--2---|
E|--0-0-1-0-0-1-0-0-1-0-0-2-2--0-0-1-0-0-1-0-0-1--0--| #: let this chord ring

Solo
e|-17p12-17p12-17p12-17p12-16p12-16p12-16p12-16p12-|

e|-15p12-15p12-15p12-15p12-14p12-14p12-14p12-14p12-|

e|-13p12-13p12-13p12-13p12-13-12-13-12-13/----------|

e|-------------------------------------------------------------------------------|
B|-13p12p10-13p12p10-13p12p10-13p12p10-14p13p11-14p13p11-14p13p11-14p13p11-|

e|-------------------------------------------------------------------------------|
B|-15p14p12-15p14p12-15p14p12-15p14p12-16p15p13-16p15p13-16p15p13-16p15p13-|

e|-------------------------------------------------------------------------------|
B|17p16p14-17p16p14-17p16p14-17p16p14-18p17p15-18p17p15-18p17p15-18p17p15--|

e|-------------------------------------------------------------------------------|
B|-19p18p16-19p18p16-19p18p16-19p18p16-20p19p17-20p19p17-20p19p17-20p19p17-|

e|-------------------21b-^^^----------------|<-extreme bend..you can use
B|-20p19p17-20p19p17--------^^^-------------|  your 24th fret. When you 
G|-----------------------------^^^----------|  use your whammy on the bend
D|--------------------------------^^^-------|  depress and vibrate at the 
A|-----------------------------------^^^----|  same time...slowly!
E|--------------------------------------^^^-|

After Solo
D|--------------------------|---| Repeat whats played before the *'s but dont play the [24]
A|-----3---3---3---3---4-4-*|--5| instead play the [35]
E|-0-0-1-0-1-0-1-0-1-0-2-2-*--3|
            
Submit corrections

comments powered by Disqus
↑ Back to top | Unsigned Tabs for Disposable Heroes - Wretch. Lyrics for acoustic guitar and electric guitar. 1 Tablatures and chords are parodies/interpretations of the original songs. You may use it for private study, scholarship, research or language learning purposes only