>
 >
Disowned - Blind

Disowned - Blind Guitar Tabs

Unsigned - Disowned - Blind chords, tabs, tablatures, lyrics

Guitar lessons | Add/correct | Request | Top 50 tabs Artists:  A B C D E F G H I J K L M N O P Q R S T U V W X Y Z 0-9

Disowned - Blind Guitar Tabs – Unsigned

CD, Sheet music, Poster

Do you like Disowned - Blind? Share with your friends now
Tabs
gtr 1  x4
D|--5555--|
A|--3333--|
F|--2222--|
C|--2222--|
G|--------|
D|--------|
A|--------|


gtr 2		              x4
D|---------------------------------------|
A|---------------------------------------|
F|---------------------------------------|
C|---------------------------------------|
G|---------------------------------------|
D|---------------------------------------|
A|--0-2-0-3-0-2-0-3----------------------|

"Are You Ready"        x8
D|-------------------------------|
A|-------------------------------| Both 
F|-------------------------------| guitars
C|-------------------------------|
G|-------------------------------| 
D|-----------------8888----------|
A|-0-2-0-3-0-2-0-3-6666----------| 


Fill 1 (Both Guitars) 
D|--------------------------------------------------------|
A|--------------------------------------------------------|
F|--------------------------------------------------------|
C|-2--2-2-2---2-2-2--4--|-%-|-%-|-2--2-2-2--2-2-2---------| 
G|-2--2-2-2---2-2-2--4--|-%-|-%-|-2--2-2-2--2-2-2---2^----|
D|-0--0-0-0---0-0-0--2--|-%-|-%-|-0--0-0-0--0-0-0---------|
A|--------------------------------------------------------|

both guitars		 fill      x1                     x4
D|----------------------|---------------------|----------------------|
A|----------------------|---------------------|----------------------|
F|----------------------|---------------------|----------------------|
C|----------------------|---------------------|----------------------|
G|----------------------|---------------------|----------------------|
D|-----------------8888-|----------------8888-|-----------------8888-|
A|-0-2-0-3-0-2-0-3-6666-|-0000-3-0-2-0-3-6666-|-0-2-0-3-0-2-0-3-6666-|

Fill 2 (Both Guitars) 
D|-----------------------------|
A|-----------------------------|
F|-----------------------------|
C|-2---5/8-7-6-7^--2---5/8-7-6-| 
G|-2---5/8-7-6-7^--2---5/8-7-6-| 
D|-0---3/6-5-4-5^--0---3/6-5-4-| 1/2 step 
A|-----------------------------|

Verse - gtr 2 (use Wah Pedal)
D|-0--0--0--0--0--0--0--0--0--0--0--0--0/0--0--0-0-0--0--0--0--0--0--|
A|-4^-4^-4^-4^-4^-4^-4^-4^-4^-4^-4^-4^-4/12-12\8-8/10-10/13-13\12-12-|
F|-------------------------------------------------------------------|
C|-------------------------------------------------------------------|
G|-------------------------------------------------------------------|
D|-------------------------------------------------------------------|
A|-------------------------------------------------------------------|

Verse - gtr 1            x4
D|------------0~~~~~~~~~~--|
A|------------0~~~~~~~~~~--|
F|------------2~~~~~~~~~~--|
C|------------3~~~~~~~~~~--|
G|--2~~~~-----3~~~~~~~~~~--|
D|--0~~~~-----0~~~~~~~~~~--|
A|-------------------------|

Fill 1 (Both Guitars) (again)
D|--------------------------------------------------------|
A|--------------------------------------------------------|
F|--------------------------------------------------------|
C|-2--2-2-2---2-2-2--4--|-%-|-%-|-2--2-2-2--2-2-2---------| 
G|-2--2-2-2---2-2-2--4--|-%-|-%-|-2--2-2-2--2-2-2---2^----|
D|-0--0-0-0---0-0-0--2--|-%-|-%-|-0--0-0-0--0-0-0---------|
A|--------------------------------------------------------|


both guitars       x4|Fill                x1                     x4
D|----------------------|---------------------|----------------------|
A|----------------------|---------------------|----------------------|
F|----------------------|---------------------|----------------------|
C|----------------------|---------------------|----------------------|
G|----------------------|---------------------|----------------------|
D|-----------------8888-|----------------8888-|-----------------8888-|
A|-0-2-0-3-0-2-0-3-6666-|-0000-3-0-2-0-3-6666-|-0-2-0-3-0-2-0-3-6666-|

Fill 3 (Gtr. 1) ("I can see................. I can see...............") 
D|----------------------------------------------|
A|----------------------------------------------|
f|----------------------------------------------|
C|-2--------------------------------------------| 
G|-2--------------------------------------------| 
D|-0--------------------------------------------| 
A|----------------------------------------------|

Fill 3 (Gtr. 2) 
F|-12-12-11--|-%-|-%-|-%-| 

Fill 4 (Both Guitars) 
C|--2--2--2-2--2-2--2--2--|
G|--2--2--2-2--2-2--2--2--|
D|--0--0--0-0--0-0--0--0--| 
pm---| pm--| pm---| pm--| 

Outro (Both Guitars) (play faster)
C|-2--2-2--2--2-2-2-2-2--2--| 
G|-2--2-2--2--2-2-2-2-2--2--| 
D|-0--0-0--0--0-0-0-0-0--0--|
 pm--| pm---------| 

Outro Solo (Gtr. 2) 
A|-15-14--------------------------------|
F|---------17-16------------------------|
C|-----------------19--18--17--18-------|





Comments


Popular Unsigned tabs & chords
Chemical 0 - Inequality Bass Tabs
Confident Song Bass Tabs
My Bass Song Bass Tabs
No Name - No Name Band Bass Tabs
Zero Xpectations - Lifes Hard Bass Tabs
Am I Different Tabs
Anti All/Quilt Boy Tabs
Arbol - 1 Tabs
Every Day Heroes - Song #1 Tabs
In Question - Waiting Tabs


Song lyrics



↑ Back to top | Tablatures and chords are parodies/interpretations of the original songs. You may use it for private study, scholarship, research or language learning purposes only
© 2014 AZChords.com Contact us | Privacy policy | DMCA | Add/correct tabs | Request tabs | Top 50 tabs