» » »

Unsigned, Disdained - First Song Tabs (ver.1)

Artists:  A B C D E F G H I J K L M N O P Q R S T U V W X Y Z # 

Disdained - First Song Tabs (ver.1)

Unsigned Tabs
 Rating:
4/5 (4 votes)
Disdained - First Song lessons Tabs too difficult? Try these video lessons and learn fast
                Standard Tuning (a,e,d,g,b,e)

INTRO

Guitar 1
-2---3---2---3---2---3---2---2----------------------
---3---3---3---3---3---3---3---3--------------------
----------------------------------------------------
----------------------------------------------------   x3
----------------------------------------------------
----------------------------------------------------

Guitar 2
-2---5-2~~~--2---5-2-2-2----------------------------
---3-----------3------------------------------------
----------------------------------------------------
----------------------------------------------------   x2
----------------------------------------------------
----------------------------------------------------
2nd guitar comes in with this after 1st guitar
plays the 1st riff x1

Guitar 1
----------------------------------------------------
----------------------------------------------------
----------------------------------------------------
-4444---5555----------7777--------------------------   x4
-2222---3333---5555---5555--------------------------
---------------3333---------------------------------

Guitar 2
-2---5-2~~~--2---5-2-2-2----------------------------
---3-----------3------------------------------------
----------------------------------------------------
----------------------------------------------------   x4
----------------------------------------------------
----------------------------------------------------

VERSE

Guitar 1
-2---3---2---3---2---3---2---2----------------------
---3---3---3---3---3---3---3---3--------------------
----------------------------------------------------
----------------------------------------------------   x5
----------------------------------------------------
----------------------------------------------------

Guitar 2
-2---5-2~~~--2---5-2-2-2----------------------------
---3-----------3------------------------------------
----------------------------------------------------
----------------------------------------------------   x5
----------------------------------------------------
----------------------------------------------------

CHORUS

Guitar 1,2
----------------------------------------------------
----------------------------------------------------
----------------------------------------------------
-4444---5555----------7777--------------------------   x4
-2222---3333---5555---5555--------------------------
---------------3333---------------------------------

VERSE

Guitar 1
-2---3---2---3---2---3---2---2----------------------
---3---3---3---3---3---3---3---3--------------------
----------------------------------------------------
----------------------------------------------------   x5
----------------------------------------------------
----------------------------------------------------

Guitar 2
-2---5-2~~~--2---5-2-2-2----------------------------
---3-----------3------------------------------------
----------------------------------------------------
----------------------------------------------------   x5
----------------------------------------------------
----------------------------------------------------

CHORUS

Guitar 1,2
----------------------------------------------------
----------------------------------------------------
----------------------------------------------------
-4444---5555----------7777--------------------------   x4
-2222---3333---5555---5555--------------------------
---------------3333---------------------------------

BRIDGE

Guitar 1,2
-5~~~--3~~~--2~~~--0~~~-----------------------------
-7~~~--3~~~--3~~~--3~~~-----------------------------
-7~~~--0~~~--0~~~--0~~~-----------------------------
-0~~~--0~~~--0~~~--0~~~-----------------------------   x2
----------------------------------------------------
----------------------------------------------------

Guitar 1,2
----------------------------------------------------
----------------------------------------------------
-22222222--44444444--55555555-----------------------
-22222222--44444444--55555555--5555--7777-----------   x2
-00000000--22222222--33333333--5555--7777-----------
-------------------------------3333--5555-----------

INTERLUDE

Guitar 1
----------------------------------------------------
----------------------------------------------------
----------------------------------------------------
-4444---5555----------7777--------------------------   x4
-2222---3333---5555---5555--------------------------
---------------3333---------------------------------

Guitar 2 plays solo but i dont know how to play it myself,
i will be askin one of the guitarests how to.

LAST CHORUS

Guitar 1,2
----------------------------------------------------
----------------------------------------------------
----------------------------------------------------
-4444---5555----------7777--------------------------   x8
-2222---3333---5555---5555--------------------------
---------------3333---------------------------------

OUTRO

Guitar 1,2
-5~~~--3~~~--2~~~--0~~~-----------------------------
-7~~~--3~~~--3~~~--3~~~-----------------------------
-7~~~--0~~~--0~~~--0~~~-----------------------------
-0~~~--0~~~--0~~~--0~~~-----------------------------   x2
----------------------------------------------------
----------------------------------------------------

ENDING CHORD

------------
------------
------------
-4~~~-------
-4~~~-------
-2~~~-------

Thanks to the boys of Disdained who composed most of this.
Lead Guitar - Daniel McGorry
Rythem Guitar - Daniel Pearce
Drums - Alexander Tome
Bass - Mervin McGee
            
Submit corrections

comments powered by Disqus
↑ Back to top | Unsigned Tabs for Disdained - First Song. Lyrics for acoustic guitar and electric guitar. Tablatures and chords are parodies/interpretations of the original songs. You may use it for private study, scholarship, research or language learning purposes only