>
 >
Discord-All Goes Numb

Discord-All Goes Numb Guitar Tabs

Unsigned - Discord-All Goes Numb chords, tabs, tablatures, lyrics

Guitar lessons | Add/correct | Request | Top 50 tabs Artists:  A B C D E F G H I J K L M N O P Q R S T U V W X Y Z 0-9

Discord-All Goes Numb Guitar Tabs – Unsigned

CD, Sheet music, Poster

Do you like Discord-All Goes Numb? Share with your friends now
Tabs
Discord- All Goes Numb

Intro:(dist)

e----------------------------------------------------------------------------
b------------------------------------------------------------------------------
g-------------------------------------------------------------------------------
d--7-x-7-x-7-x-7-x-7-7---3-x-3-x-3-x-3-x-3---------------------------5-x-5-x-5-    2x
a--7-x-7-x-7-x-7-x-7-7---3-x-3-x-3-x-3-x-3-----3-x-3-x-3-x-3-x-3-----5-x-5-x-5-     
e--5-x-5-x-5-x-5-x-5-5---1-x-1-x-1-x-1-x-1-0---3-x-3-x-3-x-3-x-3-0---3-x-3-x-3-

Verse:

e--------------------------------------------------------------------------------
b--------------------------------------------------------------------------------
g---------------------------------------------------------------------------------
d--7-x-7-x-7-x-7-x-7-7---3-x-3-x-3-x-3-x-3---------------------------5-x-5-x-5-    2x
a--7-x-7-x-7-x-7-x-7-7---3-x-3-x-3-x-3-x-3-----3-x-3-x-3-x-3-x-3-----5-x-5-x-5-     
e--5-x-5-x-5-x-5-x-5-5---1-x-1-x-1-x-1-x-1-0---3-x-3-x-3-x-3-x-3-0---3-x-3-x-3-

Chorus:(dist)

e--------------------------------------------------------------------------------
b---------------------------------------------------------------------------------
g-----------------------------------------------------------------------------
d---77777777--33333333------------55555555----------------------------------       2x
a---77777777--33333333--33333333--55555555----------------------------------
e---55555555--11111111--33333333--33333333----------------------------------

                        "As it all goes numb…….."

Verse:

e------------------------------------------------------------------------------
b------------------------------------------------------------------------------
g------------------------------------------------------------------------------
d--7-x-7-x-7-x-7-x-7-7---3-x-3-x-3-x-3-x-3---------------------------5-x-5-x-5-    3x
a--7-x-7-x-7-x-7-x-7-7---3-x-3-x-3-x-3-x-3-----3-x-3-x-3-x-3-x-3-----5-x-5-x-5-     
e--5-x-5-x-5-x-5-x-5-5---1-x-1-x-1-x-1-x-1-0---3-x-3-x-3-x-3-x-3-0---3-x-3-x-3-









Chorus:(dist)

e---------------------------------------------------------------------------
b---------------------------------------------------------------------------
g---------------------------------------------------------------------------
d---77777777--33333333------------55555555----------------------------------       2x
a---77777777--33333333--33333333--55555555----------------------------------
e---55555555--11111111--33333333--33333333----------------------------------
  
                        "As it all goes numb…….."


Slow bridge: (clean)

e--------------------------------------------------------------------------------
b-----------------------------------------------------------------------------
g---------------------------------------------------------------------------------
d-----------7------3-------3-------5---------7-------3--------3--------5---3-    1x
a-------7-------3-------3-------5---------7-------3--------3--------5------3-------
e---5--------1-------3-------3---------5-------1--------3--------3---------1-------


After Slow bridge:(dist) while guitar 2 plays lead.

e------------------------------------------------------------------------------
b------------------------------------------------------------------------------
g-----------------------------------------------------------------------------
d--7-x-7-x-7-x-7-x-7-7---3-x-3-x-3-x-3-x-3----------------------------5-x-5-x-5-   2x
a--7-x-7-x-7-x-7-x-7-7---3-x-3-x-3-x-3-x-3-----3-x-3-x-3-x-3-x-3------5-x-5-x-5-    
e--5-x-5-x-5-x-5-x-5-5---1-x-1-x-1-x-1-x-1-0---3-x-3-x-3-x-3-x-3-0----3-x-3-x-3-

Guitar 2 Lead:
Just mess around on the this scale:

e--------------------------------------------------------------------
b-----3---5----------------------------------------------------------------------
g-------------5--7--------------------------------------------------------
d----------------------5--7----------------------------------------
a------------------------------5--7--------------------------------------
e---------------------------------------3---5----------------------------




Chorus:(dist)

e--------------------------------------------------------------------------
b-----------------------------------------------------------------------------
g----------------------------------------------------------------------------
d---77777777--33333333------------55555555----------------------------------       2x
a---77777777--33333333--33333333--55555555----------------------------------
e---55555555--11111111--33333333--33333333----------------------------------






Outro:(dist)

e----------------------------------------------------------------------------
b----------------------------------------------------------------------------
g----------------------------------------------------------------------------
d--77-x-3-3333-3333---------------5-555-5555-------------------          2x
a--77-x-3-3333-3333---3-333-3333--5-555-5555-------------------                      e--55-x-1-1111-1111---3-333-3333--3-333-3333-------------------

on the 3rd time play this:

e----------------------------------------------------------------------------
b----------------------------------------------------------------------------
g----------------------------------------------------------------------------
d--77-x-3-3333-3333---------------5-555-5555---3----------------         
a--77-x-3-3333-3333---3-333-3333--5-555-5555---3----------------                     e--55-x-1-1111-1111---3-333-3333--3-333-3333---1----------------





Comments


Popular Unsigned tabs & chords
David Hasslehoff - Sex Song Bass Tabs
Indesernable - 12:20 Pm Bass Tabs
Midnight Stalker - Lose You Bass Tabs
One Man Show Down - To Those Who Hate Bass Tabs
Tito And Swan - Get A Guitar Bass Tabs
Triskiadekaphobia - Lmls Do It Better Bass Tabs
Door Knob Tabs
Eddie Congdon-Desperation Call Tabs
Infectious Waste - Suicide Tabs
Makeshift - Spiral Tabs


Song lyrics



↑ Back to top | Tablatures and chords are parodies/interpretations of the original songs. You may use it for private study, scholarship, research or language learning purposes only
© 2014 AZChords.com Contact us | Privacy policy | DMCA | Add/correct tabs | Request tabs | Top 50 tabs