» » »

Dirty-Nation - A Lesson In Rights Tabs (ver.1)

Artists:  A B C D E F G H I J K L M N O P Q R S T U V W X Y Z # 

Dirty-Nation - A Lesson In Rights Tabs (ver.1)

Unsigned
Rating:
0/5 (0 votes)

Hard to play? Try these video lessons and learn fast.
                A LESSON IN RIGHTS 

Intro:

E--------------------------------------------------------------------------------
B--14-------------14-14-------------14-14-------------14-14----------------
G-----14-------14-------14-------14-------14-------14-------14---14--14/6
D--------14-14-------------14-14-------------14-14-------------14----------
A---------------------------------------------------------------------------------
E---------------------------------------------------------------------------------

Verse:

E----------------------------   
B----------------------------
G---------------------------- x2
D------------------6--------
A---8------4------4------6
E---6------2--------------4

Chorus Build Up:

D------------
A-------4----   x4
E---6-2---44

Chorus: 

E-----------------------------
B-----------------------------
G-----------------------------
D---66—44444-------------
A---44—22222--4444444
E-------------------2222222

Order after:
Verse
Chorus Build Up
Chorus
Intro

Enjoy supporters! :)
            
Hard to play? Try these video lessons and learn fast. | Correct




comments powered by Disqus
↑ Back to top | Tablatures and chords are parodies/interpretations of the original songs. You may use it for private study, scholarship, research or language learning purposes only