>
 >
Desudo - Without A Sound

Desudo - Without A Sound Bass Tabs

Unsigned - Desudo - Without A Sound chords, tabs, tablatures, lyrics

Guitar lessons | Add/correct | Request | Top 50 tabs Artists:  A B C D E F G H I J K L M N O P Q R S T U V W X Y Z 0-9

Desudo - Without A Sound Bass Tabs – Unsigned

CD, Sheet music, Poster

Do you like Desudo - Without A Sound? Share with your friends now
Bass Tabs
Title : Without A Sound (Recorded Version)
Artist : Desudo
Tuning : EADG
Bassist : Chris Mitchell 

Intro
   G---------------------------------|---------------------------------
 4 D---------------------------------|---------------------------------
 4 A---------------------------------|---------------------------------
   E---------------------------------|---------------------------------

G---------------------------------|---------------------------------
D---------------------------------|---------------------------------
A---------------------------------|---------------------------------
E-10~-----------------------------|---------------------------------

G---------------------------------|---------------------------------
D-------14--------------14--------|-------14------------------------
A---------------------------------|-----------------1010101010101010
E-12----------12--12----------12--|-12----------12------------------

G---------------------------------|---------------------------------
D-------9---9---9-------9---9---9-|-------9-------9-------9---9---9-
A---------------------------------|---------------------------------
E-7---7-------7---7---7-------7---|-7---7-----7-7-----7-7-------7---

G---------------------------------|---------------------------------
D-------12--12--12------12--12--12|-------12------12------12--12--12
A---------------------------------|---------------------------------
E-10~-10------10--10--10------10--|-10--10----1010----1010------10--

G---------------------------------|---------------------------------
D-------------14--------------14--|-------------14------------------
A-------12-h14----------12-h14----|-------12-h14----1010101010101010
E-12--------------12--------------|-12------------------------------
Verse 1
G---------------------------------|---------------------------------
D---------------------------------|---------------------------------
A---------------------------------|---------------------------------
E-7---7---7-7-7-7---7-7---7-7-7-7-|-7---7---7-7-7-7-7-6---5-4-3-2---

G---------------------------------|---------------------------------
D---------------------------------|---------------------------------
A---------------------------------|---------------------------------
E-2---2---2-2-2-1---1-1---1-1-1-1-|-0-------------------------------

G---------------------------------|---------------------------------
D---------------------------------|---------------------------------
A---------------------------------|-----6-6-7-7-8h9-----------------
E-7---7---7-7-7-7---7-7---7-7-7-7-|-7-7-------------7-6---5-4-3-2---

G---------------------------------
D---------------------------------
A---------------------------------
E-2---2---2-2-2-1---1-1---1-1-1-1-
Pre Chorus
G---------------------------------|---------------------------------
D---------------------------------|---------------------------------
A---------------------------------|---------------------------------
E-0-----0---0---0--------/121212--|-2-2---2---2---2--------/141414--

G---------------------------------|---------------------------------
D---------------------------------|---------------------------------
A---------------------------------|---------------------------------
E-0-0---0---0---0--------/121212--|-2-2---2---2---2---3---4---5---6-
Chorus 1
G---------------------------------|---------------------------------
D---------------------6-6-7-7-8h9-|---------------------------------
A-----6-6-7-7-8h9-----------------|-----6-6-7-7-8h9-7-7---7---7---7-
E-7-7-------------7-7-------------|-7-7-----------------------------

G---------------------------------|---------------------------------
D---------------------------------|---------------------6-6-7-7-8h9-
A-4---4---4-4-4-4-----------------|-----6-6-7-7-8h9-----------------
E-----------------2-2-4-2-2-2-4-2-|-7-7-------------7-7-------------

G---------------------------------|---------------------------------
D---------------------------------|-----------------4-3-2-0---------
A-----6-6-7-7-8h9-7-7---7---7---7-|-4---4---4-4-4-----------4-3~----
E-7-7-----------------------------|---------------------------------

G---------------------------------
D---------------------------------
A---------------------------------
E---------------------------///\\\
Interlude
G---------------------------------|---------------------------------
D-------9---9---9-------9---9---9-|-------9-------9-------9---9---9-
A---------------------------------|---------------------------------
E-7---7-------7---7---7-------7---|-7---7-----7-7-----7-7-------7---

G---------------------------------|---------------------------------
D-------12--12--12------12--12--12|-------12------12------12--12--12
A---------------------------------|---------------------------------
E-10~-10------10--10--10------10--|-10--10----1010----1010------10--

G---------------------------------|---------------------------------
D-------------14--------------14--|-------------14------------------
A-------12-h14----------12-h14----|-------12-h14----10101010131313--
E-12--------------12--------------|-12------------------------------
Verse 2
G---------------------------------|---------------------------------
D---------------------------------|---------------------------------
A---------------------------------|---------------------------------
E-7~------------------------------|-----------------7-6---5-4-3-----

G---------------------------------|---------------------------------
D---------------------------------|---------------------------------
A---------------------------------|---------------------------------
E-2-------------1-----------------|-0~------------------------------

G---------------------------------|---------------------------------
D---------------------------------|---------------------------------
A---------------------------------|-----6-6-7-7-8h9-----------------
E-7---7---7-7-7-7---7-7---7-7-7-7-|-7-7-------------7-6---5-4-3-2---

G---------------------------------
D---------------------------------
A---------------------------------
E-2---2---2-2-2-1---1-1---1-1-1-1-
Pre Chorus
G---------------------------------|---------------------------------
D---------------------------------|---------------------------------
A---------------------------------|---------------------------------
E-0-----0---0---0--------/121212--|-2-2---2---2---2-----2-2/141414--

G---------------------------------|---------------------------------
D---------------------------------|---------------------------------
A---------------------------------|---------------------------------
E-0-0---0---0---0-----0-0/121212--|-2-2---2---2---2---3---4---5---6-
Chorus 2
G---------------------------------|---------------------------------
D---------------------6-6-7-7-8h9-|---------------------------------
A-----6-6-7-7-8h9-----------------|-----6-6-7-7-8h9-7-7---7---7---7-
E-7-7-------------7-7-------------|-7-7-----------------------------

G---------------------------------|---------------------------------
D---------------------------------|---------------------6-6-7-7-8h9-
A-4---4---4-4-4-4-9-9h119-9-9h119-|-----6-6-7-7-8h9-----------------
E---------------------------------|-7-7-------------7-7-------------

G---------------------------------|---------------------------------
D---------------------------------|-----------------4-3-2-0---------
A-----6-6-7-7-8h9-7-7---7---7---7-|-4---4---4-4-4-----------4-3~----
E-7-7-----------------------------|---------------------------------

G---------------------------------|-----------------
D-4-3-2-0---------4-3-2-0-4-3-2-0-|-4-3-2-0---------
A---------4-3~--------------------|---------4-3~----
E---------------------------------|-----------------
Bridge w/ Chorus Effect
G---------------------------------|---------------------------------
D-------9---9-------9---9-----9---|-------9---9-------9---9-----9---
A-------------7---7-------7h9-----|-------------7---7-------7h9-----
E-7---7---------------------------|-7---7---------------------------
  T   T P   P T   T P   P T   P     T   T P   P T   T P   P T   P

G---------------------------------|---------------------------------
D-------11--11------10--10----10--|-------------7-----7---7-----7---
A---------------------------------|---------------------------------
E-9---9-------8---8-------8-8-----|-5-----5---5-------------5-5-----
  T   T P   P T   T P   P T T P     T     T   T P     P   P T T P

G---------------------------------|-------------------9---9-----9---
D-------9---9-------9---9-----9---|-------9---9-------------7h9-----
A-------------7---7-------7h9-----|-------------7---7---------------
E-7---7---------------------------|-7---7---------------------------
  T   T P   P T   T P   P T   P     T   T P   P T   T P   P T   P

G---------------------------------|---------------------------------
D-------11--11------10--10----10--|-------------7-----------7-------
A---------------------------------|---------------------------------
E-9---9-------8---8-------8-8-----|-5-----5---5-------5---5---5-----
  T   T P   P T   T P   P T T P     T     T   T P     T   T P T 

G---------------------------------|-------------------9---9-----9---
D-------9---9-------9---9-----9---|-------9---9-------------7h9-----
A-------------7---7-------7h9-----|-------------7---7---x-----------
E-7---7---x-----------------------|-7---7---x-----------------------
  T   T P T P T   T P   P T   P     T   T P T P T   T P T P T   P

G---------------------------------|---------------------------------
D-------11--11------10--10----10--|-7-----------7-----------7-------
A---------------------------------|---------------------------------
E-9---9-------8---8-------8-8-----|---5---5---5---5---5---5---5-----
  T   T P   P T   T P   P T T P     P T   T   T P T   T   T P T

G---------------------------------|-------------------9---9-----9---
D-------9---9-------9---9-----9---|-------9---9-------------7h9-----
A-------------7---7-------7h9-----|-------------7---7---------------
E-7---7---------------------------|-7---7---------------------------
  T   T P   P T   T P   P T   P     T   T P   P T   T P   P T   P

G---------------------------------|---------------------------------
D-------11--11------10--10----10--|-------9-----------8---------8---
A---------------------------------|---------------------------------
E-9---9-------8---8-------8-8-----|-7-----------6-----------6-6-----
  T   T P   P T   T P   P T T P     

G---------------------------------|---------------------------------
D-------7-----------6-------------|-------5-----------4-------------
A---------------------------------|---------------------------------
E-5-----------4---------------4---|-3-----------2-----------2------/

G---------------------------------
D---------------------------------
A---------------------------------
E-7~----------------------7\------ Chorus Off
Bass Solo (with wah gradually increasing compression)
G---------------------------------|---------------------------------
D---------------------------------|---------------------------------
A-----6-6-7-7-8-9-----6-6-7-7-8-9-|-----6-6-7-7-8-9-----6-6-7-7-8-9-
E-7-7-------------7-7-------------|-7-7-------------7-7-------------

G---------------------------------|---------------------------------
D---------------------------------|---------------------6-6-7-7-8-9-
A-----6-6-7-7-8-9-----6-6-7-7-8-9-|-----6-6-7-7-8-9-----------------
E-7-7-------------7-7-------------|-7-7-------------7-7-------------
Chorus 3
G---------------------------------|---------------------------------
D---------------------6-6-7-7-8h9-|---------------------------------
A-----6-6-7-7-8h9-----------------|-----6-6-7-7-8h9-7-7---7---7---7-
E-7-7-------------7-7-------------|-7-7-----------------------------

G---------------------------------|---------------------------------
D---------------------------------|---------------------6-6-7-7-8h9-
A-4---4---4-4-4-4-----------------|-----6-6-7-7-8h9-----------------
E-----------------2-2-4-2-2-2-4-2-|-7-7-------------7-7-------------

G---------------------------------|---------------------------------
D---------------------------------|-----------------4-3-2-0---------
A-----6-6-7-7-8h9-7-7---7---7---7-|-4---4---4-4-4--------------~2---
E-7-7-----------------------------|-------------------------2h4-----

G---------------------------------|---------------------------------
D---------------------6-6-7-7-8h9-|---------------------------------
A-----6-6-7-7-8h9-----------------|-----6-6-7-7-8h9-7-7---7---7---7-
E-7-7-------------7-7-------------|-7-7-----------------------------

G---------------------------------|---------------------------------
D---------------------------------|---------------------------------
A-4---4---4-4-4-4-9-9h119-9-9h119-|-----6-6-7-7-8h9-----------------
E---------------------------------|-7-7-----------------------------

G---------------------------------
D---------------------------------
A-----6-6-7h8h9-7-----------------
E-7-7-----------------------------
Outro
   G-------------------------|-------------------------
 3 D-------------------------|-------------------------
 4 A-4-----4-----4-----4---4-|-9-----9-----9-----9-9-9-
   E-------------------------|-------------------------

G-------------------------|------------------------------------
D-------------------------|------------------------------------
A-------6---6-7---7-8---8-|-9\------2----------/1414--1414--14-
E-7---7-------------------|-----2h4----------------------------





Comments


Popular Unsigned tabs & chords
3 Quarters Dead - The Jungle Man Bass Tabs
Blank Tab Bass Tabs
Demigod - Veins Run Dry Bass Tabs
Homespun- Questions Of A Beautfiul Death Bass Tabs
Plank! - The Real World Bass Tabs
Abbey Normal-Zombie Massacre Tabs
Ancient Defiance- As "I" Tabs
Black Cast - No More Tabs
Chilled Out Chords + Stuff Tabs
In Question - When You Are Gone Tabs


Song lyrics



↑ Back to top | Tablatures and chords are parodies/interpretations of the original songs. You may use it for private study, scholarship, research or language learning purposes only
© 2014 AZChords.com Contact us | Privacy policy | DMCA | Add/correct tabs | Request tabs | Top 50 tabs