» » »

Unsigned, Desudo - Divide Bass tabs (ver.1)

Artists:  A B C D E F G H I J K L M N O P Q R S T U V W X Y Z # 

Desudo - Divide Bass tabs (ver.1)

Unsigned Tabs
 Rating:
4/5 (4 votes)
Desudo - Divide lessons Tabs too difficult? Try these video lessons and learn fast
                Intro (With Distortion)
G---------------------------------|---------------------------------
D---------------------------0-0-0-|-----------2-2-2-----------4-4-4-
A-----------4-4-4-----------------|---------------------------------
E-0h2-2-0-2-------0h2-2-0-2-------|-0h2-2-0-2-------0h2-2-0-2-------

G---------------------------------|---------------------------------
D---------------------------0-0-0-|-----------2-2-2-----------4-4-4-
A-----------4-4-4-----------------|---------------------------------
E-0h2-2-0-2-------0h2-2-0-2-------|-0h2-2-0-2-------0h2-2-0-2-------

G---------------------------------|---------------------------------
D---------------------------0-0-0-|-----------2-2-2-----------4-4-4-
A-----------4-4-4-----------------|---------------------------------
E-0h2-2-0-2-------0h2-2-0-2-------|-0h2-2-0-2-------0h2-2-0-2-------

G---------------------------------|---------------------------------
D---------------------------0-0-0-|-----------2-2-2-----------4~----
A-----------4-4-4-----------------|---------------------------------
E-0h2-2-0-2-------0h2-2-0-2-------|-0h2-2-0-2-------0h2-2-0-2-------
(Distortion Off)

Chorus 1
G---------------------------------|---------------------------------
D---------------------------0~----|-----------2~--------------4~----
A-----------4~--------------------|---------------------------------
E-0h2-2-0-2-------0h2-2-0-2-------|-0h2-2-0-2-------0h2-2-0-2-------

G---------------------------------|---------------------------------
D---------------------------0~----|-----------2~--------------4~----
A-----------4~--------------------|---------------------------------
E-0h2-2-0-2-------0h2-2-0-2-------|-0h2-2-0-2-------0h2-2-0-2-------

(With Chorus)
G---------------------------------
D---------------------------------
A-5-------5---5-----5-----7-7-7-7-
E---------------------------------
(Chorus Off)

G---------------------------------|---------------------------------
D---------------------------------|---------------------------------
A---------------------------------|---------------------------------
E-0h2-2-0-2-------0h2-2-0-2-0-0-0-|-0h2-2-0-2-------0h2-2-0-2-0-0-0-
(With Chorus)
G---------------------------------|---------------------------------
D---------------------------------|---------------------------------
A-4~----------------------4-------|-5-----5-----5---7---7---7-7-7-7-
E---------------------------------|---------------------------------

G---------------------------------|---------------------------------
D---------------------------0-0-0-|-----------2-2-2-----------4-4-4-
A-----------4-4-4-----------------|---------------------------------
E-0h2-2-0-2-------0h2-2-0-2-------|-0h2-2-0-2-------0h2-2-0-2-------

G---------------------------------|---------------------------------
D---------------------------0-0-0-|-----------2-2-2-----------4-4-4-
A-----------4-4-4-----------------|---------------------------------
E-0h2-2-0-2-------0h2-2-0-2-------|-0h2-2-0-2-------0h2-2-0-2-------

(With Chorus)
G---------------------------------|---------------------------------
D---------------------------------|---------------------------------
A-5~----------------------5--/7---|-4~------------------------------
E---------------------------------|---------------------------------
(Chorus Off)

Verse 1
G---------------------------------|---------------------------------
D-3-3---3-3-3-----3-3---3-3-3-----|---------------------------------
A---------------------------------|-4-4---4-4-4-----3-3---3-3-3-----
E---------------------------------|---------------------------------

G---------------------------------|---------------------------------
D-3-3---3-3-3-----3-3---3-3-3-----|---------------------------------
A---------------------------------|-4-4---4-4-4-----3-3---3-3-0~----
E---------------------------------|---------------------------------

G-----5-------4/5-----5-------4/5-|-----5--------4/5----5-------4/5-
D-3-3---3-3-3-----3-3---3-3-3-----|---------------------------------
A---------------------------------|-4-4---4-4-4-----3-3---3-3-3-----
E---------------------------------|---------------------------------

G-----5-------4/5-----5-------4/5-|-----5--------4/5----5-------4/5-
D-3-3---3-3-3-----3-3---3-3-3-----|---------------------------------
A---------------------------------|-4-4---4-4-4-----3-3---3-3-3-----
E---------------------------------|---------------------------------

G-----5-------4/5-----5-------4/5-|-----5--------4/5----5-------4/5-
D-3-3---3-3-3-----3-3---3-3-3-----|---------------------------------
A---------------------------------|-4-4---4-4-4-----3-3---3-3-3-----
E---------------------------------|---------------------------------

G-----5-------4/5-----5-------4/5-|---------5---------------5-------
D-3-3---3-3-3-----3-3---3-3-3-----|-----6-------6-------5-------5---
A---------------------------------|-4-4---4---4-----3-3---3---3-----
E---------------------------------|---------------------------------

Pre Chorus
G---------------------------------|---------------------------------
D---------------------------------|---------------------------------
A-5~----------------------5--/7---|-4~------------------------------
E---------------------------------|---------------------------------

Chorus 2
G---------------------------------|---------------------------------
D---------------------------0~----|-----------2~--------------4~----
A-----------4~--------------------|---------------------------------
E-0h2-2-0-2-------0h2-2-0-2-------|-0h2-2-0-2-------0h2-2-0-2-------

G---------------------------------|---------------------------------
D---------------------------0~----|-----------2-2-2-----------4-4-4-
A-----------4~--------------------|---------------------------------
E-0h2-2-0-2-------0h2-2-0-2-------|-0h2-2-0-2-------0h2-2-0-2-------

G-----------------------------9---
D---------------------------------
A-5-------5---5-----5-----7-7---7-
E---------------------------------
  S       S   S     S     S S P S

G---------------------------------|---------------------------------
D---------------------------------|---------------------------------
A---------------------------------|---------------------------------
E-0h2-2-0-2-------0h2-2-0-//12\\--|-0h2-2-0-2-------0h2-2-0-2-0-0---

(With Chorus)
G---------------------------------|-------------7-------9-------9---
D---------------------------------|---------------------------------
A-4~----------------------4-------|-5-----5---------7-7-----7-7-----
E---------------------------------|---------------------------------
  S                       S         S     S     P   S S P   S S P
(Chorus Off)

G---------------------------------|---------------------------------
D---------------------------0-0-0-|-----------2-2-2-----------4-4-4-
A-----------4-4-4-----------------|---------------------------------
E-0h2-2-0-2-------0h2-2-0-2-------|-0h2-2-0-2-------0h2-2-0-2-------

G---------------------------------|---------------------------------
D---------------------------0-0-0-|-----------2-2-2-----------4-4-4-
A-----------4-4-4-----------------|---------------------------------
E-0h2-2-0-2-------0h2-2-0-2-------|-0h2-2-0-2-------0h2-2-0-2-------

(With Chorus)
G---------------------------------|---------------------------------
D---------------------------------|---------------------------------
A-5~----------------------5--/7---|-4~------------------------------
E---------------------------------|---------------------------------
(Chorus Off)

Verse 2
G---------------------------------|---------------------------------
D-3-3---3-3-3-----3-3---3-3-3-----|---------------------------------
A---------------------------------|-4-4---4-4-4-----3-3---3-3-3-----
E---------------------------------|---------------------------------

G---------------------------------|---------------------------------
D-3-3---3-3-3-----3-3---3-3-3-----|---------------------------------
A---------------------------------|-4-4---4-4-4-----3-3---3-3-0~----
E---------------------------------|---------------------------------

G-----5-------4/5-----5-------4/5-|-----5--------4/5----5-------4/5-
D-3-3---3-3-3-----3-3---3-3-3-----|---------------------------------
A---------------------------------|-4-4---4-4-4-----3-3---3-3-3-----
E---------------------------------|---------------------------------

G-----5-------4/5-----5-------4/5-|---------5---------------5-------
D-3-3---3-3-3-----3-3---3-3-3-----|-----6-------6-------5-------5---
A---------------------------------|-4-4---4---4-----3-3---3---3-----
E---------------------------------|---------------------------------

Pre Solo (With Chorus)
G---------------------------------|---------------------------------
D---------------------------------|---------------------------------
A-5~----------------------5--/7---|-4~------------------------------
E---------------------------------|---------------------------------

G---------------------------------|---------------------------------
D---------------------------------|---------------------------------
A-5~----------------------5--/7---|-4~------------------------------
E---------------------------------|---------------------------------
(Chorus Off)

Guitar Solo (Distortion)
G---------------------------------|---------------------------------
D---------------------------------|---------------------------------
A-----------0---------------------|-----------0---------------------
E-0-2-2-0-2--------0-2-2-0-2-0----|-0-2-2-0-2-------0-2-2-0-2-0-----

G---------------------------------|---------------------------------
D---------------------------------|---------------------------------
A-----------0---------------------|-----------0---------------------
E-0-2-2-0-2--------0-2-2-0-2-0----|-0-2-2-0-2-------0-2-2-0-2-0-----

G---------------------------------|---------------------------------
D---------------------------------|---------------------------------
A-----------0---------------------|-----------0---------------------
E-0-2-2-0-2--------0-2-2-0-2-0----|-0-2-2-0-2-------0-2-2-0-2-0-----

G---------------------------------|---------------------------------
D---------------------------------|---------------4---4-2-0---------
A-----------0---------------------|-----------0-------------3-2-----
E-0-2-2-0-2--------0-2-2-0-2-0----|-0-2-2-0-2-----------------------

G---------------------------------|---------------------------------
D---------------------------------|---------------------------------
A-----------12--------------------|-----------12--------------------
E-1214141214-------121414121412---|-1214141214-------121414121412---

G---------------------------------|---------------------------------
D---------------------------------|---------------16--161412--------
A-----------12--------------------|-----------12------------1512----
E-1214141214-------121414121412---|-1214141214----------------------

G---------------------------------|---------------------------------
D---------------------------------|---------------------------------
A-----------0---------------------|-----------0---------------------
E-0-2-2-0-2--------0-2-2-0-2-0----|-0-2-2-0-2-------0-2-2-0-2-0-----

G---------------------------------|---------------------------------
D---------------------------------|---------------4---4-2-0---------
A-----------0---------------------|-----------0-------------3-2-----
E-0-2-2-0-2--------0-2-2-0-2-0----|-0-2-2-0-2-----------------------
Pre Chorus 2
G---------------------------------|---------------------------------
D---------------------------------|---------------------------------
A---------------------------------|---------------------------------
E-0-2-2-0-2--------0-2-2-0-2-0----|-0-2-2-0-2-------0-2-2-0-//12\\--
(Distortion Off)

Chorus 3
G---------------------------------|---------------------------------
D---------------------------0-0-0-|-----------2-2-2-----------4-4-4-
A-----------4-4-4-----------------|---------------------------------
E-0h2-2-0-2-------0h2-2-0-2-------|-0h2-2-0-2-------0h2-2-0-2-------

G---------------------------------|---------------------------------
D---------------------------0-0-0-|-----------2-2-2-----------4-4-4-
A-----------4-4-4-----------------|---------------------------------
E-0h2-2-0-2-------0h2-2-0-2-------|-0h2-2-0-2-------0h2-2-0-2-------

(With Chorus)
G---------------------------------|-------7-------------9-------9---
D---------------------------------|-----7-----7-------9-------9-----
A-4~---------------------4--------|-5-----------5---7-------7-------
E---------------------------------|---------------------------------
(Chorus Off)

G---------------------------------|---------------------------------
D---------------------------------|---------------------------------
A---------------------------------|---------------------------------
E-0-2-2-0-2-------0-2-2-0-//12\\--|-0-2-2-0-2-------0-2-2-0-//12\\--

Outro (With Chorus)
G---------------------------------|---------------------------------
D---------------------------------|---------------------------------
A-5~----------------------5--/7---|-4~------------------------------
E---------------------------------|---------------------------------

G---------------------------------|---------------------------------
D---------------------------------|---------------------------------
A-5~----------------------5--/7---|-4~------------------------------
E---------------------------------|---------------------------------

G-------------7-------------------|-------------6-------------------
D-------4---------------------4---|-------3-------------------------
A-5-----------------------5-------|-4-------------------------------
E---------------------------------|---------------------------------

G---------------------------------|---------------------------------
D-------4-----7---------------4---|-------3-----6-------------------
A-5-----------------------5-------|-4-----------------------4-------
E---------------------------------|---------------------------------

G-------------7-------------------|-------------6-------------------
D-------4-----------4---------4---|-----3---------------------------
A-5-----------------------5-------|-4-------4-----------------------
E---------------------------------|---------------------------------

G---------------------------------|-------------6h7p6---------------
D-------4-----7-----------5---7---|-------3-------------------------
A-5-------------------------------|-4-------------------------------
E---------------------------------|---------------------------------

G---------------------------------|---------------------------------
D---------------------------------|---------------------------------
A-5~----------------------5--/7---|-4~------------------------------
E---------------------------------|---------------------------------

G---------------------------------|---------------------------------
D---------------------------------|---------------------------------
A-5~------------------------------|-4~------------------------------
E---------------------------------|---------------------------------

G---------------------------------|---------------------------------
D---------------------------------|---------------------------------
A---------------------------------|---------------------------------
E-2~------------------------------|---------------------------------
            
Submit corrections

comments powered by Disqus
↑ Back to top | Unsigned Bass for Desudo - Divide. Lyrics for acoustic guitar and electric guitar. Tablatures and chords are parodies/interpretations of the original songs. You may use it for private study, scholarship, research or language learning purposes only