» » »

Delusive - The Dark Chronicle Tabs (ver.1)

Artists:  A B C D E F G H I J K L M N O P Q R S T U V W X Y Z # 

Delusive - The Dark Chronicle Tabs (ver.1)

Unsigned
Rating:
0/5 (0 votes)

Hard to play? Try these video lessons and learn fast.
                Comp guitar:



________________________________introriff 4x


                    part1        
|--------------------------------------------| 
|--------------------------------------------|
|--------------------------------------------|
|--------------------------------------------|
|-2-3-2--2---2-----------------2-3-2--2---5=-|
|-0-1-0--0-0-0-0-0-0-000-000---0-1-0--0-0-3=-|


    part 2
|----------------|
|----------------|
|----------------|        4th time skip part2
|----------------|
|----------------|
|-33333333-------|



___________________________________________________Riff1




|--------------------------------------------------------|
|--------------------------------------------------------|
|--------------------------------------------------------|
|----------------------------------10----9----10---------|
|-7----10----9----9h10p9-12-10----------------------10-9-|
|---00----00---00--------------888----88---88----88------|



|----------------------------------------------------------|
|----------------------------------------------------------|
|----------------------------------------------------------|
|----------------------------------------------------------|
|-7----10----9----9h10p9-12-10-----10----9----9h10p9-----9-|
|---00----00---00--------------888----88---88--------1010--|



|--------------------------------------------------------|
|--------------------------------------------------------|
|--------------------------------------------------------|
|----------------------------------10----9----10---------|
|-7----10----9----9h10p9-12-10----------------------10-9-|
|---00----00---00--------------888----88---88----88------|




|---------------------------------------------------------|
|---------------------------------------------------------|
|---------------------------------------------------------|
|---------------------------------------------------------|
|-7----10----9----9h10p9------------10----9----10----10-9-|
|---00----00---00--------1010-7-888----88---88----88-8--7-|

__________________________________________________riff2



|-------------------------------------------------------|
|-------------------------------------------------------|
|-------------------------------------------------------|
|---------------------------------------------------5=--|
|-----7-----8-----7-----5h7p5-----5-----3-----5-------5-|
|-555---5-5---5-5---5-5-------333---3-3---3-3---3-3-----|




|---------------------------------------------------|
|---------------------------------------------------|
|---------------------------------------------------|
|---------------------------------------------------|
|-----7-----8-----7-----5h7p5-----5-----3-----2-3-5-|
|-555---5-5---5-5---5-5-------333---3-3---3-3-0-1-3-|


    Riff1 1x
    Riff2 1x
    Riff1 1x

_________________________________________Riff3 4x

|---------------------------------|
|---------------------------------|
|---------------------------------|
|------------------------2~(high)-|
|---------------------------------|
|0000-0000-0000-0000-0000---------|


|----------------------------------------|
|----------------------------------------|
|----------------------------------------|
|----------------------------------------|
|-----------------7-9-5-7-----7-9-9-10---|
|-0000-0000---0-0---------0-0----------00|
_______________________________________________Bridge 1x

|---------|
|---------|
|---------|
|---------|
|-9-7-5-7-|
|-7-5-3-5-|
_______________________________________________Riff4 2x



|---------------------------------------------------------|
|---------------------------------------------------------|
|---------------------------------------------------------|
|-----------------------------9---10----------------------|
|-----5---6-------7---8-----------------9-7-5-7-----------|
|-333---3---3-555---5---5-777---7----7--7-5-3-5-----------|


|---------------------------------------------------------|
|---------------------------------------------------------|
|---------------------------------------------------------|
|-----------------------------9---10---10-9-7-------------|
|-----5---6-------7---8-----------------------10-8-7-8-10-|
|-333---3---3-555---5---5-777---7----7--------------------|

Riff 1 one time and then the first half of riff 1 one more time.

__________________________________________The end
            
Hard to play? Try these video lessons and learn fast. | Correct




comments powered by Disqus
↑ Back to top | Tablatures and chords are parodies/interpretations of the original songs. You may use it for private study, scholarship, research or language learning purposes only