» » »

Dekapitron - Overflow Tabs (ver.1)

Artists:  A B C D E F G H I J K L M N O P Q R S T U V W X Y Z # 

Dekapitron - Overflow Tabs (ver.1)

Unsigned
Rating:
0/5 (0 votes)

Hard to play? Try these video lessons and learn fast.
                
Tuning: (Low to High) C# F# B E G# C#

This is my best interpretation of this song. Go to their site and download it, you know what, download them all while your at it. And if you live in the Chicago area, come see them wherever they may be. Well here it is. 
First Riff:

C#:--------------------------------------------------------------
G#:--------------------------------------------------------------
E:----- //8------8-------8---------------------------------------
 B:-----//7------7-------7--------------------------------------- 
F#:-----//6------6-------6--------2------------------------------
C#:---------0-0-----0-0-----0-0---2------------------------------
repeat that riff but the second time play 3's instead of 2's

Next thing:

G#:-----------------------------------------------------------------
C#:-----------------------------------------------------------------
E:---------------------------------*5\_/----------------------------
B:---------^--------------------------------------------------------
F#:--3----3-3----3----3----3-3--------------------------------------
C#:--1-00-1-1-00-1-00-1-00-1-1—0-----------------------------------
That first pair of F5 is actually a tie, but I can’t write that on a tab. I marked them 
With a ^. A tie means to hold it out for like, two beats in this case. Just listen to the song to get the rythem(I forgot how to spell that).  That *5\_/ means to hit a harmonic at the fifth fret, then dip your bar just a little then bring it back up, it’s not very difficult, just kinda tricky to get it in time.Well laterz dude, by the way…..go to

 
            
Hard to play? Try these video lessons and learn fast. | Correct




comments powered by Disqus
↑ Back to top | Tablatures and chords are parodies/interpretations of the original songs. You may use it for private study, scholarship, research or language learning purposes only