» » »

Unsigned, Dekapitron - Monkey Guts Tabs (ver.1)

Artists:  A B C D E F G H I J K L M N O P Q R S T U V W X Y Z # 

Dekapitron - Monkey Guts Tabs (ver.1)

Unsigned Tabs
Rating:
0/5 (0 votes)
Dekapitron - Monkey Guts lessons Tabs too difficult? Try these video lessons and learn fast
                Tuning: (Low to high) C# F# B E G# C#
Heavy distortion

Intro:
C#:---------------------------
G#:--------------------------
E:----------------------------
B:----------------------------
F#:------------5---3----------
C#:-00000000-0-3-0-1----------
p.m......... .   .

Then-Drums enter(not 100% sure, but..)
C#:-----------------------------
G#:-----------------------------
E:-------------^----^----------
B:-------------5~---3~---------
F#:------------x----x----------
C#:-00000000-0-3~-0-1~---------
Or play the intro riff, just bend it some. (Im not sure which one is the right way)

Verse:
C#:---------------------------
G#:---------------------------
E:-----------------------------
B:-------------5~--3~---------
F#:----------------------------
C#:-00000000-0---0------------

Chorus Part(not 100% sure)
C#:---------------------------------
G#:---------------------------------
E:-----------------------------------
B:--------5-------3------------
F#:-------3---3---1---2/3-----
C#:-00-00---0-1-0---0-2/3----- i just got back from seeing them live, and this isnt right,but it still might be right. choose one. those last 2 chords are this(im pretty sure)
B:
F#:2 3
C#:0 1
p.m.......  .   .   .
Solo:
Ok, I really don’t have time to tab out this whole solo. So start on a 12th fret harmonic on the high C#, dip it, and start the solo. It’s based off the Am Penatonic I think. Its that one box pattern starting at the 12th fret on the low C#. Base it off that and you’ll be all good. If you really, really want me to tab it, then keep Emailing me and posting in that comment box and I’ll do it. BTW, I’ll soon be tabbing Routine, My Side, and PBJ, so expect those. Laterz
            

comments powered by Disqus
↑ Back to top | Unsigned Tabs for Dekapitron - Monkey Guts. Lyrics for acoustic guitar and electric guitar. Tablatures and chords are parodies/interpretations of the original songs. You may use it for private study, scholarship, research or language learning purposes only