>
 >
Defamation - I Dont Know

Defamation - I Dont Know Guitar Tabs

Unsigned - Defamation - I Dont Know chords, tabs, tablatures, lyrics

Guitar lessons | Add/correct | Request | Top 50 tabs Artists:  A B C D E F G H I J K L M N O P Q R S T U V W X Y Z 0-9

Defamation - I Dont Know Guitar Tabs – Unsigned

CD, Sheet music, Poster

Do you like Defamation - I Dont Know? Share with your friends now
Tabs
key: ^ = bend up
          



               intro
e 0-0-12-7--7-7-7-9-9-9-9-5-5-5-5
b -------------------------------
g -------------------------------   *2
d -------------------------------
a -------------------------------
e -------------------------------

            verse
e ------------------------------
b ------------------------------
g ------------------------------    *2
d 0-0-12-77-7-7-9-9-9-9-5-5-5-5
a 0-0-12-77-7-7-9-9-9-9-5-5-5-5
e 0-0-12-77-7-7-9-9-9-9-5-5-5-5
             pre chorus
e -----------------------------------------------
b -----------------------------------------------
g ----5^--4-6-3^-5-------------------------------   *2
d 0-1---2-----------2-3-5-3-2-0-2-3-2-0-2-3-5-3-2
a -----------------------------------------------
e -----------------------------------------------

               
              chorus
e -------------------------------------
b -------------------------------------
g -------------------------------------
d 5-5-7-7-6-6-8-8---5-5-7-7-6-6-8-8-9-7
a 5-5-7-7-6-6-8-8---5-5-7-7-6-6-8-8-9-7
e 5-5-7-7-6-6-8-8---5-5-7-7-6-6-8-8-9-7





Comments


Popular Unsigned tabs & chords
Finalnotice - Song Bass Tabs
Grillin By My Lonesome Bass Tabs
Off Limit - Parallel Tunes Bass Tabs
Sixdaystoyesterday - Sacred Ground Bass Tabs
The Death Of Gwen Stacy-Maxgetsinvisible Bass Tabs
Am I Different Tabs
Brommbauers - Tag Und Nacht Tabs
Deathstruction- For You Tabs
Independant Nation - No Reason Tabs
Laque - Its Time To Hit The Road Tabs


Song lyrics



↑ Back to top | Tablatures and chords are parodies/interpretations of the original songs. You may use it for private study, scholarship, research or language learning purposes only
© 2014 AZChords.com Contact us | Privacy policy | DMCA | Add/correct tabs | Request tabs | Top 50 tabs