» » »

Unsigned, Defamation - I Dont Know Tabs (ver.1)

Artists:  A B C D E F G H I J K L M N O P Q R S T U V W X Y Z # 

Defamation - I Dont Know Tabs (ver.1)

Unsigned Tabs
 Rating:
4/5 (4 votes)
Defamation - I Dont Know lessons Tabs too difficult? Try these video lessons and learn fast
                key: ^ = bend up
          



               intro
e 0-0-12-7--7-7-7-9-9-9-9-5-5-5-5
b -------------------------------
g -------------------------------   *2
d -------------------------------
a -------------------------------
e -------------------------------

            verse
e ------------------------------
b ------------------------------
g ------------------------------    *2
d 0-0-12-7—7-7-7-9-9-9-9-5-5-5-5
a 0-0-12-7—7-7-7-9-9-9-9-5-5-5-5
e 0-0-12-7—7-7-7-9-9-9-9-5-5-5-5
             pre chorus
e -----------------------------------------------
b -----------------------------------------------
g ----5^--4-6-3^-5-------------------------------   *2
d 0-1---2-----------2-3-5-3-2-0-2-3-2-0-2-3-5-3-2
a -----------------------------------------------
e -----------------------------------------------

               
              chorus
e -------------------------------------
b -------------------------------------
g -------------------------------------
d 5-5-7-7-6-6-8-8---5-5-7-7-6-6-8-8-9-7
a 5-5-7-7-6-6-8-8---5-5-7-7-6-6-8-8-9-7
e 5-5-7-7-6-6-8-8---5-5-7-7-6-6-8-8-9-7
            
Submit corrections

comments powered by Disqus
↑ Back to top | Unsigned Tabs for Defamation - I Dont Know. Lyrics for acoustic guitar and electric guitar. Tablatures and chords are parodies/interpretations of the original songs. You may use it for private study, scholarship, research or language learning purposes only