>
 >
Decomposed - Blood And Fire

Decomposed - Blood And Fire Guitar Tabs

Unsigned - Decomposed - Blood And Fire chords, tabs, tablatures, lyrics

Guitar lessons | Add/correct | Request | Top 50 tabs Artists:  A B C D E F G H I J K L M N O P Q R S T U V W X Y Z 0-9

Decomposed - Blood And Fire Guitar Tabs – Unsigned

CD, Sheet music, Poster

Do you like Decomposed - Blood And Fire? Share with your friends now
Tabs
Decomposed
       Blood and fire (originally taken from the T 0 N album "Bloody Kisses")        



Use normal tuning


Intro:                           
e------------------------------------------
B------------------------------------------
G-------2~~~----5~---7~---7~~~~~-----------
D-------2~~~----5~---5~---7~~~~~-----------
A-------0~~~----3~---5~---5~~~~~-----------
E---0-3------------------------------------

with drums                       
e------------------------------------------
B------------------------------------------
G-------2-------5---------7----------------
D-------2-------5----5----7----------------
A-------0-----0-3--0-5--0-5----------------
E---0-3--------------3---------------------- 

Riff A:          ...Riff B
e---------------]------------------
B---------------]------------------
G---------------]------------------
D---3---5-5-3-5-]------------------
A---3---5-5-3-5-]------------------
E---------------]------------------

Riff B:  (verse riff)
e---------------------------------------------------------------------
B---------------------------------------------------------------------
G-------2--2-2-2-2-2-2-5--5-5--------7--7-7-7-7-7-7-------------------
D-------2--2-2-2-2-2-2-5--5-5-5--5-5-7--7-7-7-7-7-7-5--5-5-4----------
A-------0--0-0-0-0-0-0-3--3-3-5--5-5-5--5-5-5-5-5-5-3--3-3-2----------
E---0-3-----------------------3--3-3----------------------------------
           . . . . . . .  . . .  . . .  . . . . . . 

Riff C:  (verse riff 2)
e---------------------------------------------------------------------
B---------------------------------------------------------------------
G-------2--2-2-2-2-2-2-5--5-5--------7--7-7-7-7-7-7-------------------
D-------2--2-2-2-2-2-2-5--5-5-5--5-5-7--7-7-7-7-7-7-3---5-5-3-5-------
A-------0--0-0-0-0-0-0-3--3-3-5--5-5-5--5-5-5-5-5-5-3---5-5-3-5-------
E---0-3-----------------------3--3-3----------------------------------
           . . . . . . .  . . .  . . .  . . . . . .

Riff D:  (bridge riff)
e-------------------------12--11--------------------------------------
B-------------------------12--11--------------------------------------
G-------2----5----7---10--12--11--9----9-9-7----9-9-7-----------------
D-------2----5----7---10----------9----9-9-7----7-7-7-----3---5-5-3-5-
A-------0----3----5----8----------7----7-7-5----7-7-5-----3---5-5-3-5-
E---0-3---------------------------------------------------------------

Chorus riff:  (first half)
e---------------------------------------------------------------------
B---------------------------------------------------------------------
G-------2--2-2-2-2-2-2-5--5-5--------7--7-7-7-7-7-7-------------------
D-------2--2-2-2-2-2-2-5--5-5-5--5-5-7--7-7-7-7-7-7-5--5-5-4----------
A-------0--0-0-0-0-0-0-3--3-3-5--5-5-5--5-5-5-5-5-5-3--3-3-2----------
E---0-3-----------------------3--3-3----------------------------------

second half
e---------------------------------------------------------------------
B---------------------------------------------------------------------
G-------2--2-2-2-2-2-2-5--5-5--------7--7-7-7-7-7-7-------------------
D-------2--2-2-2-2-2-2-5--5-5-5--5-5-7--7-7-7-7-7-7-3---5-5-3-5-------
A-------0--0-0-0-0-0-0-3--3-3-5--5-5-5--5-5-5-5-5-5-3---5-5-3-5-------
E---0-3-----------------------3--3-3----------------------------------

Chorus 2 riff:
e-----------------------------------------------------------------
B-----------------------------------------------------------------
G-------2--2-2-2-2-2-2-5--5-5--------2--2-2-2-2-2-2-5--5-5--------
D-------2--2-2-2-2-2-2-5--5-5-5--5-5-2--2-2-2-2-2-2-5--5-5-5--5-5-
A-------0--0-0-0-0-0-0-3--3-3-5--5-5-0--0-0-0-0-0-0-3--3-3-5--5-5-
E---0-3-----------------------3--3-3-----------------------3--3-3-
           . . . . . .    . .    . .    . . . . . .    . .    . .

e------------------------------------------------------
B------------------------------------------------------
G-2--2-2-2-2-2-2-5--5-5--------7--7-7-7-7-7-7----------
D-2--2-2-2-2-2-2-5--5-5-5--5-5-7--7-7-7-7-7-7-5--5-5-4-
A-0--0-0-0-0-0-0-3--3-3-5--5-5-5--5-5-5-5-5-5-3--3-3-2-
E-----------------------3--3-3-------------------------
     . . . . . .    . .    . .    . . . . . .

e---------------------------------------------------------------
B---------------------------------------------------------------
G-----2--2-2-2-2-2-2-5--5-5--------2--2-2-2-2-2-2-5--5-5--------
D-----2--2-2-2-2-2-2-5--5-5-5--5-5-2--2-2-2-2-2-2-5--5-5-5--5-5-
A-----0--0-0-0-0-0-0-3--3-3-5--5-5-0--0-0-0-0-0-0-3--3-3-5--5-5-
E-0-3-----------------------3--3-3-----------------------3--3-3-
         . . . . . .    . .    . .    . . . . . .    . .    . .

e---------------------------------------
B---------------------------------------
G-2--2-2-2-2-2-2-5--5-5--------7--------
D-2--2-2-2-2-2-2-5--5-5-5--5-5-7--------
A-0--0-0-0-0-0-0-3--3-3-5--5-5-5--------
E-----------------------3--3-3----------
     . . . . . .    . .    . .

Acoustic part 1:  (1., 2., 3., 4., 5. time)
e----------------------------------------------------------------------
B-12---12---12---12---10---10---10---10---7---7-5-------5---5---5---5--
G---------------------------------------------------7------------------
D----9----9----9----9----7----7----7----7---4-----4---4---2---2---2---2
A----------------------------------------------------------------------
E----------------------------------------------------------------------

6. time
e---------------------------------------------------------------------
B-12---12---12---12---10---10---10---10---7---7-5-------5-------------
G---------------------------------------------------7---4-------------
D----9----9----9----9----7----7----7----7---4-----4---4-2-------------
A---------------------------------------------------------------------
E---------------------------------------------------------------------
 
Solo 1:                                                              
e------------------------------------------------------------------------
B-10r-9-----10r-9---------------------------10r-9-----10r-9--------------
G-------9-7-------9--7-7-94-72-40-2---------------9-7-------9--7-7h9-9^r-
D------------------------------------2h3p0-------------------------------
A------------------------------------------------------------------------
E------------------------------------------------------------------------

Background riff 1:
e-----------------------------------------------------------
B-----------------------------------------------------------
G---------------------------7--9-9--9-7--7--9-9--9----------
D-7--9-9--9-7--7--9-9--9-7--5--7-7--7-5--5--7-7--7-7h9p7/5--
A-5--7-7--7-5--5--7-7--7-5----------------------------------
E-----------------------------------------------------------

e----------------------------------------------------
B----------------------------------------------------
G----------------------------------------------------
D-7--9-9--9-7--7--9-9--9-7--2--2-2-2-2-5-7-5---9--8--
A-5--7-7--7-5--5--7-7--7-5--0--0-0-0-0-3-5-3---7--6--
E----------------------------------------------------
                               . . . .
 
Acoustic part 2:  (1., 2., 3., 4. time)
e------------------------------------------------------------------
B------------------------------------------------------------------
G-----2-----2---------0-----0---------0-----0---------0-------0----
D---2-----2---2-----0-----0---0-----4-----4---4-----0---0---4---4--
A-0-----0-------0-3-----3-------3-5-----5-------5-3-------5--------
E------------------------------------------------------------------

5. time
e------------------------------------------------------------------
B-----------------------------------------------------6-----8---8--
G-----2-----2---------0-----0---------0-----0-------5---5-----7----
D---2-----2---2-----0-----0---0-----4-----4---4---3-------5--------
A-0-----0-------0-3-----3-------3-5-----5-------5------------------
E------------------------------------------------------------------

6. time
e--------------------------------------
B-------------------------------3------
G-----2-----2---------0-----0---2------
D---2-----2---2-----0-----0---0-0------
A-0-----0-------0-3-----3-------0------
E--------------------------------------

Solo 2:
e-----------------------------------------------------------15r------
B--------------15r--------17r--------------------15r-----------------
G--------14---------14-12-----12r----------14---------14-12-----12r--
D---12r-----12------------------------12r-----12---------------------
A--------------------------------------------------------------------
E--------------------------------------------------------------------

Background riff 2:
e----------------------------------------------------------
B----------------------------------------------------------
G-------2-------5---------7--------------------------------
D-------2-------5----5----7----5--5-5-4--------------------
A-------0-----0-3--0-5--0-5----3--3-3-2--------------------
E---0-3--------------3-------------------------------------

Outro:
e------------
B------------
G-------2~---
D-------2~---
A-------0~---
E---0-3------

Returning:    ...part 2 begin
e------------]---
B------------]---
G------------]---
D---5--/7-7/5/7--
A---3--/5-5/3/5--
E----------------

part 2:
e-----0r----0r--------0r----0r--------0r----0r--------0r------0r---
B------------------------------------------------------------------
G------------------------------------------------------------------
D---2-----2---2-----0-----0---0-----4-----4---4-----0---0---4---4--
A-0-----0-------0-3-----3-------3-5-----5-------5-3-------5--------
E------------------------------------------------------------------

e-----0r----0r-----------------------------------------------------
B------------------------------------------------------------------
G------------------------------------------------------------------
D---2-----2---2-/9r--h10p9h10r-p9r---------------------------------
A-0-----0----------------------------------------------------------
E------------------------------------------------------------------


Playing order:

2x Intro
4x Intro with drums
   Riff A
3x Riff B
   Riff C
   Riff D
   Chorus riff (first half)
   Chorus riff (second half)
3x Riff B
   Riff C
   Riff D
   Acoustic part 1
   Solo 1 with background riff 1
   Acoustic part 2
   Solo 2 with background riff 2
   Chorus 2 riff
   Riff A
   Outro
   Returning

Tablature legend:

. = palm mute
/ = slide
h = hammer
p = pull
r = let ring
~ = vibrato
^ = 1/2 step





Comments


Popular Unsigned tabs & chords
Retribution - Blues Song Bass Tabs
Smcg - The Dighe March Bass Tabs
Sonus - New Age Bass Tabs
Tito And Swan - We Dont Know Your Name Bass Tabs
5ive Pm Untitled Guitar Tabs
Climax - Purity Tabs
Fernands Band - Die Tabs
In Question - Calices Tabs
Ivan L. Fourie - Lovesick Tabs
La De Da Tabs


Song lyrics



↑ Back to top | Tablatures and chords are parodies/interpretations of the original songs. You may use it for private study, scholarship, research or language learning purposes only
© 2014 AZChords.com Contact us | Privacy policy | DMCA | Add/correct tabs | Request tabs | Top 50 tabs