» » »

Deathstruction- For You Tabs (ver.1)

Artists:  A B C D E F G H I J K L M N O P Q R S T U V W X Y Z # 

Deathstruction- For You Tabs (ver.1)

Unsigned
Rating:
0/5 (0 votes)

Hard to play? Try these video lessons and learn fast.
                SAM "I AM FAITHFUL TO ELIZABETH" CHAMI (guitar)
IYAD "I M SMOOTH & COOL" HACHEM (guitar)

p.m: palm mute
h: hamer

intro:
GUITAR 2:
|--------------------------------------|
|--------------------------------------|
|--------------------------------------|
|---4---4---4---4---4---4---4---4--|
|-2---2---0---0----------------------|
|-----------------3---3---0---0------|  (x6)

GUITAR 1:p.m
|---------------------------------|
|---------------------------------|
|---------------------------------|
|---------------------------------|
|---------------------------------|
|-777-555-333-000-----------| (x2) start after 2 times guitar 1

continues...p.m
|---------------------------------|
|---------------------------------|
|---------------------------------|
|-999-777-555-222-----------|
|-999-777-555-222-----------|
|-777-555-333-000-----------| (x2) while guitar 1 continues

Riff:
Guitar 1 & 2   (h)
|---------------------------------|
|---------------------------------|
|-44-----------------------------|
|-44-55-77-22-----------------|
|-22-55-77-22-----------------|
|-----33-55-00------------------|

Verse:
GUITAR 2
|-----------------------------------------------------------------------|
|-----------------------------------------------------------------------|
|-----------------------------------------------------------------------|
|---4---4---4---4---4---4---4---4---4---4---4---4---4---4---4----|
|-2---2---2---2---0---0---0---0-------------------------------------|
|-------------------------------------3---3---3---3---0---0---0------| (x2)

GUITAR 1
|----------------------------------------------------------------|
|----------------------------------------------------------------|
|---4------4------4------4------4------4------4--------------|
|----------------------------------------------------------------|
|-2------2------0------0---------------------------------------|
|-----------------------------3------3------0------------------| (x2)

Bridge:
GUITAR 1
|------------------------------------------------------------------------|
|------------------------------------------------------------------------|
|--4---4---4---4---4---4---4---4---4---4---4---4---4---4---4------|
|---4---4---4---4---4---4---4---4---4---4---4---4---4---4---4-----|
|-2---2---2---2---0---0---0---0--------------------------------------|
|---------------------------------3---3---3---3---0---0---0-----------| (x2)

GUITAR 2 p.m
|----------------------------------------------------------------|
|----------------------------------------------------------------|
|-4-----4------2-----2-----------------------------------------|
|-4-----4------2-----2------5-----5-----2--------------------|
|-2-----2------0-----0------5-----5-----2--------------------|
|---------------------------3-----3-----0----------------------| (x2)

Chorus:
GUITAR 1& 2
Riff:Guitar 1 & 2 h
|---------------------------------|
|---------------------------------|
|-44444------------------------|
|-44444-3333-5555-2222---|
|-22222-3333-5555-2222---|
|-------5555-7777-0000------| (x4)

Then REPEAT:
INTRO GUITAR 1
Then VERSE GUITAR 1&2
Then BRIDGE GUITAR 1&2
THEN CHORUS GUITAR 1 & 2

Interlude: Part 1
Guitar 1 (fast strumming)
|---------------------------------|
|---------------------------------|
|-444-666-888-101010-------|
|-444-666-888-101010-------|
|-222-444-666-8-8-8---------|
|---------------------------------|  (x2)

Part 2:
GUITAR 2
|---------------------------------|
|---------------------------------|
|-4-4---666---------------------|
|-4-4---666---5-5--777-------|
|-2-2---444---5-5--777-------|
|-------------3-3--555----------| (x8)PLay 2 times like this Then 6 times really fast strumming

GUITAR 1
guitar solo
last 4 times of part2 GUITAR 2:
|-------------------------------------|
|-------------------------------------|
|---7-5-4----7-5-4---7-5-4--2-0-5-4-2-|
|-------------------------------------|
|-------------------------------------|
|-------------------------------------|

Part 3:
GUITAR 1 & 2:
|---------------------------------|
|---------------------------------|
|---------------------------------|
|-999-777-555-222-----------|
|-999-777-555-222-----------|
|-777-555-333-000-----------| (x4) really fast strumming

CHORUS (repeat x4)

Ending:
GUITAR 2:
|-------------------------------------|
|-------------------------------------|
|-------------------------------------|
|---4---4---4---4---4---4---4---4-|
|-2---2---0---0---------------------|
|-------------------3---3---0---0---| (x3)
Then.....:
GUITAR 2:
|-------------------------------------|
|-------------------------------------|
|-------------------------------------|
|---4---4---4---4---4---4---4-----|
|-2---2---0---0---------------------|
|-------------------3---3---0----3--|               That’s all there is…Good Luck
            
Hard to play? Try these video lessons and learn fast. | Correct




comments powered by Disqus
↑ Back to top | Tablatures and chords are parodies/interpretations of the original songs. You may use it for private study, scholarship, research or language learning purposes only