>
 >
Death 2

Death 2 Guitar Tabs

Unsigned - Death 2 chords, tabs, tablatures, lyrics

Guitar lessons | Add/correct | Request | Top 50 tabs Artists:  A B C D E F G H I J K L M N O P Q R S T U V W X Y Z 0-9

Death 2 Guitar Tabs – Unsigned

CD, Sheet music, Poster

Do you like Death 2? Share with your friends now
TabsTabs v2Tabs v3
tuning:drop D
this song kinda sounds like my other one but i think this one is better though.please 
rate.this is the exact order i play it in

Intro 4x 

|-----------------------------------|
|-----------------------------------|
|-----------------------------------|
|---7-85--7-85---7---6-74--6-74---6-|
|-----------------------------------|
|-55-5--55-5--555--44-4--44-4--444--|

riff a 2x 

|-----------------------------------|
|-----------------------------------|
|-----------------------------------|
|---7-8--7--8-7------6-7--6--7-6----|
|-55-5-55-55-5-555-44-4-44-44-4-444-|
|-55-5-55-55-5-555-44-4-44-44-4-444-|
  ** * ** ** * *** ** * ** ** * ***
Riff c 2x 

|------------------------------------|
|------------------------------------|
|-------------------------------7777-|
|-66686966866968666-5575855755855555-|
|-66666666666666666-5555555555555555-|
|-66666666666666666-5555555555555555-|

Riff D 2x

|------------------------------------------------------------|
|------------------------------------------------------------|
|-1010101010101010101010101010101010101010101010101099999999-|
|-8-8-8-8-8-8-8-8-8-8-8-8-8-8-8-8-0-7-7-7-7-7-7-7-7-77777777-|
|-8-8-8-8-8-8-8-8-8-8-8-8-8-8-8-8-0-7-7-7-7-7-7-7-7-77777777-|
|-8-8-8-8-8-8-8-8-8-8-8-8-8-8-8-8-0-7-7-7-7-7-7-7-7-77777777-|

Riff E 2x

|--------------------------------------------------------------------|
|-101010101011111111111111111111111111111111101010101010101010101010-|
|-x-x-x-x-x-x-x-x-x-x-x-x-x-x-x-x-x-x-x-x-x-x-x-x-x-x-x-x-x-x-x-x-x--|
|-8-8-8-8-8-8-8-8-8-8-8-8-8-8-8-0-7-7-7-7-7-7-7-7-7-7-7-7-7-7-7-7-7--|
|-8-8-8-8-8-8-8-8-8-8-8-8-8-8-8-0-7-7-7-7-7-7-7-7-7-7-7-7-7-7-7-7-7--|
|-8-8-8-8-8-8-8-8-8-8-8-8-8-8-8-0-7-7-7-7-7-7-7-7-7-7-7-7-7-7-7-7-7--|
Riff D 2x again

Fill riff #1 1x
|------|
|------|
|-7777-|
|-5555-|
|-5555-|
|-5555-|
Riff C 2x again

Fill riff #2 1x (play this going into riff F)
|-------|
|-------|
|-------|
|/88-77-|
|/88-77-|
|/88-77-|

Riff F 3x                       
                               1st,3rd      2nd
|----------------------------|---------|---------|
|----------------------------|---------|---------|
|----------------------------|---------|---------|
|----------------------------|-----7---|---8-7---|
|-0-00-7-8-0-00-8-10-0-00-7-8|-7-8---8-|-7-----8-|
|-0-00-7-8-0-00-8-10-0-00-7-8|---------|---------|
  * ** * * * ** * *  * ** * *      
Fill Riff #3 1x
|---------------------------------------|
|---------------------------------------|
|---------------------------------------|
|---------------------------------------|
|-0-00-7-8-0-00-8-10-0-00-7-8-7-8-10-10-|
|-0-00-7-8-0-00-8-10-0-00-7-8-----------|
  * ** * * * ** * *  * ** * *
Riff G      
|---------------------------------------|
|---------------------------------------|
|---------------------------------------|
|---------------------------------------|
|-----10/12-10-----7-8-------10---------|
|-0-0----------0-0-----8-0-0----0-7-0-0-|
  * *          * *     *  * *   * * * *
Riff H 2x (palm mute riff 1st time thru then play again without plam muting)

|---------------------------------------------|
|---------------------------------------------|
|---------------------------------------------|
|---------------------------------------------|
|---8-7--10-8--------------8-7--10-12-7-------|
|-00-0-00--0-0001087h8p7-00-0-00--0--0-003/5-|

Riff I 2x

|--------------------------------------------|
|--------------------------------------------|
|---109--12-10-------------109--12-14-9------|
|---x-x--x--x---1087h8p7---x-x--x--x--x--3/5-|
|-008070010080001087h8p7-00807001001207003/5-|
|-00-0-00--0-0001087h8p7-00-0-00--0--0-003/5-|
  ** * **  * ***         ** * **  *  * **
Fill Riff #5 2x                      2nd
|----------------------------------|-------|
|----------------------------------|-------|
|----------------------------------|-------|
|---8-7--7-10-8--8-12-10--10-8-7--7|-------|
|-008070070100800801201000100807007|-05032-|
|-008070070100800801201000100807007|-05032-|
  ** * ** *  * ** *  *  **  * * **   *****
Riff J 4x

|------------------------------------------------|
|------------------------------------------------|
|---10-9-------12-10-------12-14----1210109------|
|---8--7-------10-8--------10-12----108-8-7------|
|-008-0777777-01008-88888-010012000-108-8-777810-|
|-008-0777777-01008-88888-010012000-108-8-777810-|
  **  * ***** *  *  ***** *  *  ***        ****

Riff K 3x

|-----------------------------------------------------------------|
|-----------------------------------------------------------------|
|-7~------------------------------6~------------------------------|
|-5~------------------------------4~------------------------------|
|-5~--5-5-5-5-5-5-5-5-5-5-5-5-5-5-4~--4-4-4-4-4-4-4-4-4-4-4-4-4-4-|
|-5~--5-5-5-5-5-5-5-5-5-5-5-5-5-5-4~--4-4-4-4-4-4-4-4-4-4-4-4-4-4-|
      * * * * * * * * * * * * * *     * * * * * * * * * * * * * *
Fill Riff #6 1x
|---------------------------------------------------------------------|
|---------------------------------------------------------------------|
|-7~------------------------------6~----------------------------------|
|-5~------------------------------4~----------------------------------|
|-5~--5-5-5-5-5-5-5-5-5-5-5-5-5-5-4~--4-4-4-4-4-4-4-4-2-2-2-2-2-2-2-2-|
|-5~--5-5-5-5-5-5-5-5-5-5-5-5-5-5-4~--4-4-4-4-4-4-4-4-2-2-2-2-2-2-2-2-|
      * * * * * * * * * * * * * *     * * * * * * * * * * * * * * * * 

Riff L 3x

|-------------------------------------------------------------------------|
|-------------------------------------------------------------------------|
|-------7-------------8-------7-------------6-------------7-------6-------|
|-------------------------------------------------------------------------|
|-5-5-5---5-5-5-5-5-5---5-5-5---5-5-5-4-4-4---4-4-4-4-4-4---4-4-4---4-4-4-|
|-5-5-5---5-5-5-5-5-5---5-5-5---5-5-5-4-4-4---4-4-4-4-4-4---4-4-4---4-4-4-|
  * * *   * * * * * *   * * *   * * * * * *   * * * * * *   * * *   * * *
Fill Riff #7 1x
|------------------------------------------------------------------------------|
|------------------------------------------------------------------------------|
|-------7-------------8-------7-------------6-------------7--------------------|
|--------------------------------------------------------------------------7~--|
|-5-5-5---5-5-5-5-5-5---5-5-5---5-5-5-4-4-4---4-4-4-4-4-4---4-4-2-2-2-2-0--5~--|
|-5-5-5---5-5-5-5-5-5---5-5-5---5-5-5-4-4-4---4-4-4-4-4-4---4-4-2-2-2-2-0--0~--|
  * * *   * * * * * *   * * *   * * * * * *   * * * * * *   * * * * * * *
Ending riff 1x                       harmonic(let ring out)      
                                              | 
|---------------------------------------------------|
|---------------------------------------------------|
|------------------------------------------10-7~~~~-|
|-----7-----7-----5-----8---5-7-8/10---7h8-10-7~~~~-|
|---5-----8-----7-----7-----------------------------|
|-0-----0-----0-----0-----0-------------------------|
  *     *     *     *     *
Finally done!Let me know what u guys think.late.
Key
/:slide up
\:slide down
*:plam mute
x:mute string
h:hammer-on
p:pull-off
~:let note ring





Comments


Popular Unsigned tabs & chords
Cryin Froot-Juice - Sildenafil Citrate Bass Tabs
Hernia - Smells Like Teen Spirit Bass Tabs
Kinky - Mas Bass Tabs
Stereo Ad 1 Bass Tabs
Triskiadekaphobia - Lmls Do It Better Bass Tabs
A Really Sweet Acoustic Song I Wrote Tabs
Another Cool Song I Made Tabs
Drywater-Cratephone Tabs
Four Fingers And A Toe - Broken Balls Tabs
Great White Something - The Warning Tabs


Song lyrics



↑ Back to top | Tablatures and chords are parodies/interpretations of the original songs. You may use it for private study, scholarship, research or language learning purposes only
© 2014 AZChords.com Contact us | Privacy policy | DMCA | Add/correct tabs | Request tabs | Top 50 tabs