» » »

Dead Heads-First Song Tabs (ver.1)

Artists:  A B C D E F G H I J K L M N O P Q R S T U V W X Y Z # 

Dead Heads-First Song Tabs (ver.1)

Unsigned
Rating:
0/5 (0 votes)

Hard to play? Try these video lessons and learn fast.
                First Song

	I’m new at this so try it out please.
Intro X2
E------------------------------------/
B------------------------------------/
D------------------------------------/
G------------------------------------/
A-9--7---7--5---5--3---3--2---2/
E------------------------------------/
Intro part 2 X2
E------------------------------------------/
B------------------------------------------/
D------------------------------------------/
G------------------------------------------/
A-999777775555555333333322222/
E------------------------------------------/
Chorus X2
E-----------------------------------/
B-----------------------------------/
D-----------------------------------/
G-9-9-9-7-7-7-7-7-9-9-9-7-7-7/
A-7-7-7-5-5-5-5-5-7-7-7-5-5-5/
E-----------------------------------/
Chores part 2 X2
E-----------------------------------/
B-----------------------------------/
D-----------------------------------/
G-----------------------------------/
A-9-9-9-7-7-7-7-7-9-9-9-7-7-7/
E-7-7-7-5-5-5-5-5-7-7-7-5-5-5/
Verse X2
E----------------------------------------------------------------------------------/
B----------------------------------------------------------------------------------/
D----------------------------------------------------------------------------------/
G--------9-9---7-7---5-5----------7-7---9-9---7-7----------5-5---7-7---5-5/
A-9-9---7-7---5-5---3-3---7-7---5-5---7-7---5-5---5-5---3-3---5-5---3-3/
E-7-7------------------------5-5-------------------------3-3--------------------/
            
Hard to play? Try these video lessons and learn fast. | Correct




comments powered by Disqus
↑ Back to top | Tablatures and chords are parodies/interpretations of the original songs. You may use it for private study, scholarship, research or language learning purposes only