» » »

Unsigned, Dayz Never Done-Shibby Tabs (ver.1)

Artists:  A B C D E F G H I J K L M N O P Q R S T U V W X Y Z # 

Dayz Never Done-Shibby Tabs (ver.1)

Unsigned Tabs
 Rating:
4/5 (4 votes)
Dayz Never Done-Shibby lessons Tabs too difficult? Try these video lessons and learn fast
                PLAY WIH DISTORTION
(INTRO)
play this 2 times
E-----------------------------------------
B-----------------------------------------
G-----------------------------------------
D---7-7-5-5-4-4-5-5----7-7-5-5-4-4-5-5----   x2 
A----5-5-5-5-5-5-5-5----5-5-5-5-5-5-5-5---
E-----------------------------------------

play 2 times
E-----------------------------------------------------------------------------------
B-----------------------------------------------------------------------------------
G---5-55--33-3-3--------33-3-3--5-55--33-3-3----------33-33--555-55--3-33------------
D---5-55--33-3-3--3-33--33-3-3--5-55--33-3-3--3-3-33--33-33--555-55--3-33--333333----
A---3-33--11-1-1--3-33--11-1-1--3-33--11-1-1--3-3-33--11-11--333-33--1-11--333333----
E-----------------1-11------------------------1-1-11-----------------------111111----
(CONT)
E-----------------------------------------------------
B-----------------------------------------------------
G---------555-55--3-33--------------------------------  ()-let it ring
D---5-55--555-55--3-33--3-33-3-3-3-(3)----------------
A---5-55--333-33--1-11--3-33-3-3-3-(3)----------------
E---3-33----------------1-11-1-1-1-(1)----------------
            
Submit corrections

comments powered by Disqus
↑ Back to top | Unsigned Tabs for Dayz Never Done-Shibby. Lyrics for acoustic guitar and electric guitar. Tablatures and chords are parodies/interpretations of the original songs. You may use it for private study, scholarship, research or language learning purposes only