» » »

Unsigned, Dayz Never Done- Never Alone Tabs (ver.1)

Artists:  A B C D E F G H I J K L M N O P Q R S T U V W X Y Z # 

Dayz Never Done- Never Alone Tabs (ver.1)

Unsigned Tabs
 Rating:
4/5 (4 votes)
Dayz Never Done- Never Alone lessons Tabs too difficult? Try these video lessons and learn fast
1
                INTRO (PLAY 2X PLUCKING)
E----------------------------------------------
B----------------------------------------------
G---0--0------0--0-----------------------------
D--0--0--0---0--0--0----0--0------0--0---------
A-3--3--3---2--2--2----0--0--0---0--0--0-------
E---------------------3--3--3---2--2--2--------

1ST LINE
(PLAY 2X THAN PLAY ONCE MORE THROUGH AND ADD IN THE SECOND LINE)
STRUM DOWN ONLY
E-----------------------------------------------
B-----------------------------------------------
G--000000--000000-------------------------------
D--000000--000000--000000--000000---------------
A--333333--222222--000000--000000---------------
E------------------333333--222222---------------

2ND LINE
E---------------------------------------------------------------------------
B---------------------------------------------------------------------------
G-000000-000000-000000-000000-0000-000000-000000-000000-000000--------------
D-000000-000000-000000-000000-0000-000000-000000-000000-000000-000000-000000
A-333333-222222-555555-777777-9999-777777-555555-333333-222222-000000-000000
E--------------------------------------------------------------333333-222222

PLUCK (2X)
E----------------------------------------------
B----------------------------------------------
G---0--0------0--0-----------------------------
D--0--0--0---0--0--0----0--0------0--0---------
A-3--3--3---2--2--2----0--0--0---0--0--0-------
E---------------------3--3--3---2--2--2--------
            
Submit corrections

comments powered by Disqus
↑ Back to top | Unsigned Tabs for Dayz Never Done- Never Alone. Lyrics for acoustic guitar and electric guitar. 1 Tablatures and chords are parodies/interpretations of the original songs. You may use it for private study, scholarship, research or language learning purposes only