» » »

Unsigned, Day Five-Tommarow Tabs (ver.1)

Artists:  A B C D E F G H I J K L M N O P Q R S T U V W X Y Z # 

Day Five-Tommarow Tabs (ver.1)

Unsigned Tabs
 Rating:
4/5 (4 votes)
Day Five-Tommarow lessons Tabs too difficult? Try these video lessons and learn fast
1
                Intro:
|-----------------------------------------|
|-----------------------------------------|
|-----------------------------------------|
|----3-5-4-4-5----5-3-4-4-5-----5-3-4-4-5-|
|3-5-----4-4-5--3-----4-4-5-3-5-----4 4 5-|
|--------2-2-3--------2-2-3---------2 2 3-|


Verse:
|-------|
|-------|
|-------|
|-4-4-5-|
|-4-4-5-|
|-2-2-3-|
gtr 2 repeat 

|----4-6-4| 
|4 6------|
|---------|
|---------|
|---------|
|---------|
gtr 1 reapeat


Choris:
|-----------------------------------|
|-----------------------------------|
|-----------------------------------|
|4-4-4-4-4-4-5-5-5-5-5-5-7-7-7-7-7-7|
|4-4-4-4-4-4-5-5-5-5-5-5-7-7-7-7-7-7|
|2-2-2-2-2-2-3-3-3-3-3-3-5-5-5-5-5-5|  
gtr 2

|-----------------------------------|
|-----------------------------------|
|-----------------------------------|
|----4-----4-----5-----5-----7-----7|
|----4-----4-----5-----5-----7-----7|
|2-2-2-2-2-2-3-3-3-3-3-3-5-5-5-5-5-5|
gtr 1


Solo:
|-------|
|-------|
|-------|
|4-4-5-7|
|4-4-5-7|
|4-4-5-7|
gtr 2 plays during solo

|-------------9------------------------10-13-15-13----------|
|11-13-11-13b---13---11/13\11----14-10-------------15-13-14b|
|------------------12---------12----------------------------|
|-----------------------------------------------------------|
|-----------------------------------------------------------|
|-----------------------------------------------------------|
gtr 1 solo

Part 2 of Solo:
|--------|
|---13-11|
|12------|
|--------|
|--------|
|--------|
gtr 2 plays with wah wah

|-----|
|-----|
|-----|
|4-5-7| 
|4-5-7| 
|4-5-7|  
gtr 1 repeat

ORDER:
|-intro--|
|-verse--|
|-choris-|
|-verse--|
|-choris-|
|-solo---|
|-choris-|
            
Submit corrections

comments powered by Disqus
↑ Back to top | Unsigned Tabs for Day Five-Tommarow. Lyrics for acoustic guitar and electric guitar. 1 Tablatures and chords are parodies/interpretations of the original songs. You may use it for private study, scholarship, research or language learning purposes only