» » »

Dark Garden - Vetericus Tabs (ver.1)

Artists:  A B C D E F G H I J K L M N O P Q R S T U V W X Y Z # 

Dark Garden - Vetericus Tabs (ver.1)

Unsigned
Rating:
0/5 (0 votes)

Hard to play? Try these video lessons and learn fast.
                Hey everyone,
Here is a tab for one of my latest songs, named "Vetericus", so here you go, I hope you all enjoy it.

Tuning - Dropped C - C G C F A D

v = vibrato
/ = slide up
h = hammer-on
p = pull off

Intro/Chorus

D|-----------------------------------------------|
A|-----------------------------------------------|
F|-----------------------------------------------|
C|--0--7-----0--5-5/7-7---2--9-------2--7-7/9-9--|
G|--0--8-7v--0--3-3/5-5---2--10--9v--2--5-5/7-7--|
C|--0--------0------------2----------2-----------| x4

Verse

Guitar 1
D|----------|
A|----------|
F|-------7--|
C|--5-------|
G|----7-----|
C|----------| x8


Guitar 2 with tremelo
D|------------------------------------------|
A|------------------------------------------|
F|------------------------------------------|
C|------------------------------------------|
G|--2-2-2-2--3-3-3-3--10-10-10-10--5-5-5-5--|
C|------------------------------------------| x8

Bridge

Guitar 1
D|------------------------------------------|
A|------------------------------------------|
F|------------------------------------------|
C|--0-0-0-0--3-3-3-3--8-8-8-8--10-10-10-10--|
G|--0-0-0-0--3-3-3-3--8-8-8-8--10-10-10-10--|
C|--0-0-0-0--3-3-3-3--8-8-8-8--10-10-10-10--| x4

Guitar 2
D|--5--8----------1-/-13h15----------22p20--15--10--13--10v--|
A|-------8--6--3------------------18-------------------------|
F|---------------------------17v-----------------------------|
C|-----------------------------------------------------------|
G|-----------------------------------------------------------|
C|-----------------------------------------------------------|


Seeya.
            
Hard to play? Try these video lessons and learn fast. | Correct




comments powered by Disqus
↑ Back to top | Tablatures and chords are parodies/interpretations of the original songs. You may use it for private study, scholarship, research or language learning purposes only