>
 >
Darker Than Ink - Pray

Darker Than Ink - Pray Guitar Tabs

Unsigned - Darker Than Ink - Pray chords, tabs, tablatures, lyrics

Guitar lessons | Add/correct | Request | Top 50 tabs Artists:  A B C D E F G H I J K L M N O P Q R S T U V W X Y Z 0-9

Darker Than Ink - Pray Guitar Tabs – Unsigned

CD, Sheet music, Poster

Do you like Darker Than Ink - Pray? Share with your friends now
Tabs
tuning: Eb Ab Db Gb Bb Eb
genre: metal
-- = palm mute

intro (clean)

Eb--------------------------------------------------------
Bb--------------------------------------------------------
Gb-7-xxx-7-x77--------------------------------------------
Db-6-xxx-6-x66-------------------------------------------- 4x's
Ab-5-xxx-5-x55--------------------------------------------
Eb-4-xxx-4-x44--------------------------------------------

2nd part of intro/ chorus (heavy distortion)

Eb---------------------------------------------------------
Bb---------------------------------------------------------
Gb-7-777-7-777--------------------------------------------- 4x's 1st chorus
Db-6-666-6-666-2-222-3-333--------------------------------- 8x's 2nd chorus
Ab-5-555-5-555-2-222-3-333--------------------------------- 8x's 3rd chorus
Eb-4-444-4-444-0-000-1-111---------------------------------
     ---   -     ---   -
verse (clean) 
Eb---------------------------------------------------------
Bb---------------------------------------------------------
Gb---------------------------------------------------------
Db---6--6--6--6--7--7--7--7--7--7--7--7--7--6--6--6--6----- 4x's for verses
Ab-4--4--4--4--4--4--4--4--5--5--5--5--5--5--5--5--5-------
Eb---------------------------------------------------------

1st part of bridge (clean)
Eb---------------------------------------------------------
Bb---------------------------------------------------------
Gb-12-xxx-12-x121212---------------------------------------
Db-11-xxx-11-x111111--------------------------------------- 4x's
Ab-10-xxx-10-x101010---------------------------------------                       Eb--9-xxx--9-x-9-9-9---------------------------------------

2nd part of bridge (heavy distortion)

Eb---------------------------------------------------------
Bb---------------------------------------------------------
Gb---------------------------------------------------------
Db-3-333-3-333---------------------------------------------
Ab-3-333-3-333---------------------------------------------
Eb-1-111-1-111---------------------------------------------
     ---   -





Comments


Popular Unsigned tabs & chords
Imp - Everybodys A Victim Bass Tabs
Scope - Lampost Bass Tabs
The - Dr Pepper Bass Tabs
Unforgivin - Taken Away Bass Tabs
2tones-Stink Like Fish Tabs
Ck Crash Rockers-Novocaine Tabs
Demonology - We All Die Young Tabs
Grudge Against Reality - Without Words Tabs
Huchi Can Take It - Md Geist Tabs
In Question - Waiting Tabs


Song lyrics



↑ Back to top | Tablatures and chords are parodies/interpretations of the original songs. You may use it for private study, scholarship, research or language learning purposes only
© 2014 AZChords.com Contact us | Privacy policy | DMCA | Add/correct tabs | Request tabs | Top 50 tabs