» » »

Unsigned, Darker Than Ink - Nothing Bass tabs (ver.1)

Artists:  A B C D E F G H I J K L M N O P Q R S T U V W X Y Z # 

Darker Than Ink - Nothing Bass tabs (ver.1)

Unsigned Tabs
Rating:
0/5 (0 votes)
Darker Than Ink -  Nothing lessons Tabs too difficult? Try these video lessons and learn fast
                tuning: Eb Ab Db Gb
bassist: Marc King
time signature: 4/4
s = slap
p = pluck

intro/verse (clean)

Gb-----------------------------------------------------
Db----------------------------------------------------- 8x's/ 1st verse
Ab----------2-2-2-2-----------0-0-0-0------------------ 4x's/ 2nd verse
EB-0-0-0-0-----------3-3-3-3---------------------------

chorus (clean)

Gb-----------------------------------------------------
Db-----4--------4--------4--------4-------------------- chorus 1 and 2 4x's
Ab----------2-2---2-----------0-0---0------------------ chorus 3 8x's
Eb-0-0---0-----------3-3---3---------------------------

1st part of bridge (clean)

Gb-----------------------------------------------------
Db--------------4--------4------2---2------------------
Ab-----2----2-2---2-----------0---0--------------------  4x's
Eb-0-0---0-----------3-3---3---------------------------

2nd part of bridge (clean)

Gb-----------------------------------------------------
Db---------------------------------4p------------------
Ab-------2p-----------9p------------------------7p-----  4x's
EB-0s-0s----0s--7s-7s----7s--3s-3s----3s--5s-5s----5s--
            

comments powered by Disqus
↑ Back to top | Unsigned Bass for Darker Than Ink - Nothing. Lyrics for acoustic guitar and electric guitar. Tablatures and chords are parodies/interpretations of the original songs. You may use it for private study, scholarship, research or language learning purposes only