» » »

Unsigned, Darker Than Ink - Nothing Tabs (ver.1)

Artists:  A B C D E F G H I J K L M N O P Q R S T U V W X Y Z # 

Darker Than Ink - Nothing Tabs (ver.1)

Unsigned Tabs
 Rating:
4/5 (4 votes)
Darker Than Ink -  Nothing lessons Tabs too difficult? Try these video lessons and learn fast
                tuning: Eb Ab Db Gb Bb Eb
time signature: 4/4
-- = palm mute

intro (guitar 1, reverb and chorus)

Eb------------------------------------------------------
Bb------------------------------------------------------
Gb------------------------------------------------------  8x's first verse
Db------------4---4---4---4-----------------------------  2x's at end of 2nd verse
Ab---2---2--2---2--------------7---7--------------------  
Eb-0---0------------3---3----5---5----------------------

intro (guitar 2, chorus, reverb)

Eb------------------------------------------------------
Bb------------------------------------------------------
Gb----------4-4-4-4--4-4-4-4---------------------------- 8x's 1st verse
Db-2-2-2-2--4-4-4-4--4-4-4-4--7-7-7-7------------------- 4x's 2nd verse
Ab-2-2-2-2--2-2-2-2--2-2-2-2--7-7-7-7-------------------
Eb-0-0-0-0-----------3-3-3-3--5-5-5-5-------------------

chorus (guitar1 and guitar 2, heavy distortion)

Eb------------------------------------------------------
Bb------------------------------------------------------
Gb----------4-4-4-4--4-4-4-4---------------------------- chorus 1 and 2 play 4x's
Db-2-2-2-2--4-4-4-4--4-4-4-4--7-7-7-7------------------- chorus 3 play 8x's
Ab-2-2-2-2--2-2-2-2--2-2-2-2--7-7-7-7-------------------
Eb-0-0-0-0-----------3-3-3-3--5-5-5-5-------------------

1st part of bridge (guitar 1, reverb, chorus, delay)

Eb------------------------------------------------------
Bb------------------------------------------------------
Gb------------------------------------------------------
Db-----------4---4---4---4------------------------------   4x's
Ab---2--2--2---2-------------7---7----------------------
Eb-0--0------------3---3---5---5------------------------

2nd part of bridge (guitars 1 and 2, heavy distortion)

Eb------------------------------------------------------
Bb------------------------------------------------------
Gb----------4-4-4-4--4-4-4-4----------------------------
Db-2-2-2-2--4-4-4-4--4-4-4-4--7-7-7-7------------------- 4x's
Ab-2-2-2-2--2-2-2-2--2-2-2-2--7-7-7-7-------------------
Eb-0-0-0-0-----------3-3-3-3--5-5-5-5-------------------
   - - - -           - - - -
            
Submit corrections

comments powered by Disqus
↑ Back to top | Unsigned Tabs for Darker Than Ink - Nothing. Lyrics for acoustic guitar and electric guitar. Tablatures and chords are parodies/interpretations of the original songs. You may use it for private study, scholarship, research or language learning purposes only